Song name
# A B C D E F G H I J K L M N O P Q R S T U V W X Y Z

Merle Haggard - Fugitive tab

Help us improve GuitareTab! Take a short survey!
----------------------------------------------------------------------------
			     The Fugitive - Merle Haggard
----------------------------------------------------------------------------
Tabbed by:Troy

Email:Tronic_455_4013@hotmail.com

Tuning:EADGBe

you'll have to figure out the timing but ive practiced many many times and this is 
how it sounds, so good luck e-mail ne problems; if you find any.

e|-10-10-10--7-7-7--------------------------------------------------------|
B|-----------------10-10-10--888-7-----7--7-8p7---7-7--------8---7-----7-8|
G|---------------------------------9-7----------9-----7----9---9---7-9----|
D|------------------------------------------------------10----------------|
A|------------------------------------------------------------------------|
E|------------------------------------------------------------------------|

e|-10\12/10--8\10/8--7\8/7--5-----------------------------------------------|
B|--------------------------------------------------------------------------|
G|--------------------------------------------------------------------------|
D|--------------------------------------------------------------------------|
A|--------------------------------------------------------------------------|
E|--------------------------------------------------------------------------|


| /  slide up
| \  slide down
| h  hammer-on
| p  pull-off
| ~  vibrato
| +  harmonic
| x  Mute note
===============================================================================
Related for Fugitive tab