Song name
# A B C D E F G H I J K L M N O P Q R S T U V W X Y Z

Merle Haggard - Always Wanting You tab

			     Always Wanting You - Merle Haggard
-------------------------------------------------------------------------------
Tabbed by:codyellison
Email:SniperMan18@yahoo.com

Tuning:Standard

Acoustic Solo pt. 1:
e|---------------------------------------------------------------------------|
B|---------8--10--10/12---8h10--8--8--10h12--10--10--7--8--8p7------7--8-----|
G|--9--10-------------------------------------------------------9------------|
D|---------------------------------------------------------------------------|
A|---------------------------------------------------------------------------|
E|---------------------------------------------------------------------------|

e|---------------------------------------------------------------------------|
B|--8/10--10h12--12--10------------------------------------------------------|
G|---------------------------------------------------------------------------|
D|---------------------------------------------------------------------------|
A|---------------------------------------------------------------------------|
E|---------------------------------------------------------------------------|

Electric fill 1:
e|---------------------------------------------------------------------------|
B|---------------------------------------------------------------------------|
G|---------------------------------------------------------------------------|
D|---------------------------------------------------------------------------|
A|-2b2b0--0--2--2b2b2b0------------------------------------------------------|
E|----------------------2--3-------------------------------------------------|

Acoustic solo pt. 2:
e|---------------------------------------------------------------------------|
B|--------8--8/10--10--10--------8--10--10slide12--10--7h8p7-----7--8--------|
G|--7--9-------------------7--9-------------------------------9--------------|
D|---------------------------------------------------------------------------|
A|---------------------------------------------------------------------------|
E|---------------------------------------------------------------------------|

e|--------10/12--10----------------------------------------------------------|
B|--8/10---------------------------------------------------------------------|
G|---------------------------------------------------------------------------|
D|---------------------------------------------------------------------------|
A|---------------------------------------------------------------------------|
E|---------------------------------------------------------------------------|

Electric fill 2:
e|---------------------------------------------------------------------------|
B|---------------------------------------------------------------------------|
G|---------------------------------------------------------------------------|
D|---------------------------------------------------------------------------|
A|--2b2b0---0--2--2b2b2b0----------------------------------------------------|
E|-------------------------2--3----------------------------------------------|

one of my first tabs on here and the template kept giving me trouble on the electric 
w/ the bends and some of the slides. any questions, comments please tell me.

| /  slide up
| \  slide down
| h  hammer-on
| p  pull-off
| ~  vibrato
| +  harmonic
| x  Mute note
===============================================================================
Tap to rate this tab
# A B C D E F G H I J K L M N O P Q R S T U V W X Y Z