Song name
# A B C D E F G H I J K L M N O P Q R S T U V W X Y Z

Merle Haggard - If We Make It Through December tab

    __    __                __    __                __    __
              |  |  |  |  |     |     |  |  |  |  |     |     |  |  |  |
|-----------------------|-----------------------|-----------------------|
|-------------5--6-----8|-------------6--5------|-------------5---------|
|-----------------------|----------------------7|----------------7-----5|
|-----------------------|-----------------------|-----------------------|
|-----------------------|-----------------------|-----------------------|
|-----------------------|-----------------------|-----------------------|


                                       __    __                __    __
  |                       |     |     |  |  |  |  |     |     |  |  |  |
|-----------------------|-----------------------|-----------------------|
|-----------------------|----------------5-----6|-------5---------------|
|-----------------------|-------------7---------|-------------7--4-----5|
|-7---------------------|-----------------------|-----------------------|
|-----------------------|-----------------------|-----------------------|
|-----------------------|-----------------------|-----------------------|


               __                      __    __
  |     |     |  |  |     |     |     |  |  |  |  |
|-----------------------|-----------------------|-----------------------|
|-------------5---------|-----------------------|-----------------------|
|----------------7--5---|-------------7--5------|-5---------------------|
|-----------------------|-8-----------------8---|-----------------------|
|-----------------------|-----------------------|-----------------------|
|-----------------------|-----------------------|-----------------------|




Outro
               __    __                __    __                __    __
              |  |  |  |  |     |     |  |  |  |  |     |     |  |  |  |
|-----------------------|-----------------------|-----------------------|
|-------------5--6-----8|-------------6--5------|----------------5-----6|
|-----------------------|----------------------7|-------------7---------|
|-----------------------|-----------------------|-----------------------|
|-----------------------|-----------------------|-----------------------|
|-----------------------|-----------------------|-----------------------|


               __    __                __    __          __    __    __
  |     |     |  |  |  |  |     |     |  |  |  |  |     |  |  |  |  |  |
|-----------------------|-----------------------|-5---------------------|
|-----------------------|----------------5--6--8|----------6------------|
|-------------7--5-----4|-------------7---------|-------------7--4-----5|
|-----------------------|-----------------------|-----------------------|
|-----------------------|-----------------------|-----------------------|
|-----------------------|-----------------------|-----------------------|


                                 __    __
  |     |     |     |     |     |  |  |  |  |     |
|-----------------------|-----------------------|-----------------------|
|-------------5---------|-----------------------|-----------------------|
|-----------------------|----------5--7--5------|-5---------------------|
|-----------------------|-8-----------------8---|-----------------------|
|-----------------------|-----------------------|-----------------------|
|-----------------------|-----------------------|-----------------------|
Tap to rate this tab
 
# A B C D E F G H I J K L M N O P Q R S T U V W X Y Z