Song name
# A B C D E F G H I J K L M N O P Q R S T U V W X Y Z

Merril Bainbridge - Being Boring tab

BEING BORING - Merril Bainbridge

Tabbed by: Rozzette
Email:rosie_193@hotmail.com

I could not find one single tab of any of her songs anywhere on the net, even though
most her songs are mainly tab! so heres one of mine...
 
Tuning: normal

Intro:
E|-------------------------------------------------------------------------|
B|--4-----4------3-----3-----3------3------4-----4----4-----4----3---3-----|
G|------5------------3-----------3---3---------5--5-------5--5------3------|
D|-----5-----------3-----------3-------------5----------5----------3-------|
A|-------------------------------------------------------------------------|
E|-------------------------------------------------------------------------|

E|---4-----4----3-----3-------------------------------|
B|-------4----------3---3-----------------------------|
G|------5----------4------4---------------------------|
D|--------------------------0-------------------------|
A|----------------------------------------------------|
E|----------------------------------------------------|
Tap to rate this tab
# A B C D E F G H I J K L M N O P Q R S T U V W X Y Z