Song name
# A B C D E F G H I J K L M N O P Q R S T U V W X Y Z

Merton - Montreal Song tab

Montreal Song Intro by Merton a.k.a PianoChatImrov. 
Check out his Youtube channel: 
http://www.youtube.com/user/PianoChatImprov?blend=1&ob=5

By the way, this is my first tab so it might be a little bit wonky.

Note: The A string is optional.


e|-----0--3--8---0--7---5--3--5--7---5-3--2--3--5---3-2-3--2--0-------|
B|--------------------------------------------------------------------|
G|--------------------------------------------------------------------|
D|--------------------------------------------------------------------|
A|-----------7----------------10-----------5-------------3------------|
E|--------------------------------------------------------------------|



e|-----0--3--8---0--7---5--3--5--7---5-3--2--3--5-3-2--0--------------|
B|--------------------------------------------------------------------|
G|--------------------------------------------------------------------|
D|--------------------------------------------------------------------|
A|-----------7----------------10-----------5-------------3------------|
E|--------------------------------------------------------------------|



e|-----0--3--8---0--7---5--3--5--7---5-3--2--3--5---3-5-7-3--0--------|
B|--------------------------------------------------------------------|
G|--------------------------------------------------------------------|
D|--------------------------------------------------------------------|
A|-----------7----------------10-----------5-------------3------------|
E|--------------------------------------------------------------------|



e|--------3--5---------0--5--3-----------2-3-2--0-----0---------------|
B|-----1---------0--1--------------0-1-3----------3-1-----------------|
G|-------------------------------2------------------------------------|
D|--------------------------------------------------------------------|
A|-----------2---------------0-----------7------------3---------------|
E|--------------------------------------------------------------------|
Tap to rate this tab
 
# A B C D E F G H I J K L M N O P Q R S T U V W X Y Z