Song name
# A B C D E F G H I J K L M N O P Q R S T U V W X Y Z

Merton - Montreal Song Improved tab

Montreal Song Intro by Merton a.k.a PianoChatImrov. 
Check out his Youtube channel: 
http://www.youtube.com/user/PianoChatImprov?blend=1&ob=5

By the way, this is my first tab and I'm a beginner so it might be a little bit wonky.




e|-----------8-----7--------------7-----------------------------------|
B|--------8------------10--8--10------10--8-7-8-10---8-7-8-7----------|
G|-----9---------9-------------------------------------------9--------|
D|--------------------------------------------------------------------|
A|--------------------------------------------------------------------|
E|--------------------------------------------------------------------|




e|-----------8-----7--------------7----------------7------------------|
B|--------8------------10--8--10------10--8-7-8-10---8-7--------------|
G|-----9---------9----------------------------------------9-----------|
D|--------------------------------------------------------------------|
A|--------------------------------------------------------------------|
E|--------------------------------------------------------------------|



e|-----------8-----7--------------7-----------------------7-----------|
B|--------8------------10--8--10------10--8-7-8-10---8-10---8---------|
G|-----9---------9--------------------------------------------9-------|
D|--------------------------------------------------------------------|
A|--------------------------------------------------------------------|
E|--------------------------------------------------------------------|



e|---------------------------------------2-3-2--0-----0---------------|
B|---------10--------------10--8----------------7-8-7-----------------|
G|------9---------------9--------------------7---------9--7------9----|
D|----10--------9--10--------------7--9--10------------------10-------|
A|--------------------------------------------------------------------|
E|--------------------------------------------------------------------|
Tap to rate this tab
# A B C D E F G H I J K L M N O P Q R S T U V W X Y Z