Song name
# A B C D E F G H I J K L M N O P Q R S T U V W X Y Z

Meshuggah - New Millenium Cyanide Christ tab

MESHUGGAH - NEW MILLENIUM CYANIDE CHRIST - THIS IS NOT THE WHOLE SONG
this tab is of the breakdown near the end
ALL guitars are played at the same time and repeated as many times as you want it to be.

GTR 1
E --------------------------------------------------------------------------|
B --------------------------------------------------------------------------|
G --------------------------------------------------------------------------|
D -3--5-----3--5--------------3--5-----3--5---------------------------------|
A -2--4--2--2--4--------2-----2--4--2--2--4--------2------------------------|
E -1--3--2--1--3--------------1--3--2--1--3---------------------------------|
B -------0--------0--1-----0--------0--------0--1---------------------------|

GTR 2

E --------------------------------------------------------------------------|
B --------------------------------------------------------------------------|
G -10-----------------------------------------16----------------------------|
D --------------------------------------------------------------------------|
A -8------------------------------------------14----------------------------|
E --------------------------------------------------------------------------|
B --------------------------------------------------------------------------|

GTR 3

E -8-------8--------8-----------8--------8---------8------------------------|
B -------12-----12---------12---------12-------12---------------------------|
G --------------------------------------------------------------------------|
D --------------------------------------------------------------------------|
A --------------------------------------------------------------------------|
E --------------------------------------------------------------------------|
B --------------------------------------------------------------------------|
Tap to rate this tab
 
# A B C D E F G H I J K L M N O P Q R S T U V W X Y Z