Song name
# A B C D E F G H I J K L M N O P Q R S T U V W X Y Z

Meshuggah - Sum Ending tab

******PLEASE READ******

I would prefer it hand plucked in Eb standard but if you use a pick good luck... 
Remember when two or more notes are consecutive on a sting I mean to hold that note while 
plucking the other notes. CHORUS+REVERB+COMPRESSOR makes this awesome. Have fun!

Eb|-------------------------------------------------------------------------------------|
Bb|-------------------------------------------------------------------------------------|
Gb|--4--2----4--1----4--2----4--1----4--2----4--1----4--2----4--1----4--2----4--1-------|
Db|--1--1----1-------1--1----1-------1--1----1-------1--1----1-------1--1----1----------|
Ab|-------------4---------------4---------------4---------------4---------------4-------|
Eb|-------------------------------------------------------------------------------------|



Eb|--------------------------------------------------------------------------------|
Bb|--------------------------------------------------5--3--2-----------------------|
Gb|--4--2----4--1----4--2----4--1----4--2----4--1-------------2----4----2--1-------|
Db|--1--1----1-------1--1----1-------1--1----1-------2--4--4--2----4----2--2--4----|
Ab|-------------4---------------4---------------4----------------------------------|
Eb|--------------------------------------------------------------------------------|



Eb|------------------------------------------------------------------------------|
Bb|--5--3--2-----------------5--3--2-----------------------5--3--2---------------|
Gb|-----------2----4----1-------------2----4----2--1----------------2----4----1--|
Db|--2--4--4--2----4----2----2--4--4--2----4----2--2--4----2--4--4--2----4----2--|
Ab|------------------------------------------------------------------------------|
Eb|------------------------------------------------------------------------------|


Eb|-----------5----13------------------------12--------------5-----|
Bb|--2h-4--3-----------11--11--------------------12----2h-4-----3--|
Gb|------------------------------10h-11p-10--9---9-----------------|
Db|----------------13--13--14--------------------------------------|
Ab|--4--4--4--4----------------------------------------4--4--4--4--|
Eb|------------------------------11--11--11------------------------|


Eb|-----------5----13------------------------12--------------5-----|
Bb|--2h-4--3-----------11--11--------------------12----2h-4-----3--|
Gb|------------------------------10h-11p-10--9---9-----------------|
Db|----------------13--13--14--------------------------------------|
Ab|--4--4--4--4----------------------------------------4--4--4--4--|
Eb|------------------------------11--11--11------------------------|


Eb|-----------5----13------------------------12--------------5-----|
Bb|--2h-4--3-----------11--11--------------------12----2h-4-----3--|
Gb|------------------------------10h-11p-10--9---9-----------------|
Db|----------------13--13--14--------------------------------------|
Ab|--4--4--4--4----------------------------------------4--4--4--4--|
Eb|------------------------------11--11--11------------------------|


Eb|-----------5----13------------------------12--------------5-----|
Bb|--2h-4--3-----------11--11--------------------12----2h-4-----3--|
Gb|------------------------------10h-11p-10--9---9-----------------|
Db|----------------13--13--14--------------------------------------|
Ab|--4--4--4--4----------------------------------------4--4--4--4--|
Eb|------------------------------11--11--11------------------------|
                                                        http://www.guitartabcreator.com
Tap to rate this tab
 
# A B C D E F G H I J K L M N O P Q R S T U V W X Y Z