Guitaretab - guitar tabs
Song name
# A B C D E F G H I J K L M N O P Q R S T U V W X Y Z

Meshuggah - Choirs Of Devastation tab

Band: Meshuggah
Song: Choirs of Devastation
Album: Contradictions Collapse

Okay, here goes. I am not sure if this tab is entirely correct, but I hope it will
give other people ideas, and hopefully get a better version up and don't worry, i
know it's meshuggah, but it is standard tuning, at least that's what sounds best
to me

Intro

Acoustic: Intro

|------------------------------------|-------------------------------------|
|------------------------------------|-------------------------------------|
|---------------8--------------------|---------------8---------------------|
|-----------8--------8---------------|-----------8--------8----------------|
|------6------------------6------6---|------6------------------6-------6---|
|--6--------------------------6------|--0---------------------------0------|
                                     x2                                   x2

^Repeat this whole thing twice^

Acoustic Part A
|-------------------------------------|----------------------------------|
|-------------------------------------|--------------------9-------------|
|----------------8--------------------|---------------8--------8---------|
|-----------8--------8----------------|----------8-----------------8-----|
|------6------------------6------6----|-----6--------------------------6-|
|--6--------------------------6-------|--0-------------------------------|
                                     x2                                  x2
^Repeat this whole thing 4 times^

and on the 4th repetition, end with this

|-----------------------------------|
|--------------------9-~~~let ring--|
|----------------8------------------|
|-----------8-----------------------|
|------6----------------------------|
|--0--------------------------------|
                                      

Electric (Distortion) Part B
[ Tab from: http://www.guitaretab.com/m/meshuggah/65333.html ]
Quick Staccatos, Donít let note ring at all
|-----------------------------------------------|
|-----------------------------------------------|
|-----------------------------------------------|
|-----------------------------------------------| 
				
Related for Choirs Of Devastation tab