Song name
# A B C D E F G H I J K L M N O P Q R S T U V W X Y Z

Mess - Its Up To You tab

Mess - It's Up To You
Santiago
linkero@hotmail.com
This Tab is the second guitar of the song I dont know how to play
the first but here's the second

After the Intro:
---7--5--0-0-------------
----------------------------
----------------------------   x6
----------------------------
----------------------------
---------------------------- 

----------------------------------------------------
----------------------------------------------------
-----------7--7--x--x--5--5--5--5--4--4--4--
--2--x--x--7--7--x--x--5--5--5--5--4--4--4--  x7
--2--x--x--5--5--x--x--3--3--3--3--2--2--2--
-----------------------------------------------------

The next part is the same but you have to use dist  and you  play
it  also 7 times

that's all you have to play  here's the order:

1- first rif after intro

2- rithm without dist

3- rithm with dist 

4- rithm without dist

Play this twice exept for the 1 part

if you want to know something else about mess e-mail me
Tap to rate this tab
 
# A B C D E F G H I J K L M N O P Q R S T U V W X Y Z