Song name
# A B C D E F G H I J K L M N O P Q R S T U V W X Y Z

Mest - Wasting My Time tab

----------------------------------------------------------
			     Wasting Time - Mest
---------------------------------------------------------

By: Erin 
 
Pretty easy intro..... sounds really good.... this is my first tab... enjoy

e|------12--------12-----------12-------12----------------
B|----------12----------12-----------12----12--------------
G|---------------------------------------------------------
D|---------------------------------------------------------
A|---------------------------------------------------------
E|---------------------------------------------------------

e|---------------------------------------------------------
B|------10---9-----7----7---9------------------------------
G|-------------------------------9-------------------------
D|---------------------------------------------------------
A|---------------------------------------------------------
E|---------------------------------------------------------

e|------12--------12-----------12-------12----------------
B|----------12----------12-----------12----12--------------
G|---------------------------------------------------------
D|---------------------------------------------------------
A|---------------------------------------------------------
E|---------------------------------------------------------

e|---------------------------------------------------------
B|------10---9-----12----12---14-----12--------------------
G|--------------------------------------------------------
D|---------------------------------------------------------
A|---------------------------------------------------------
E|---------------------------------------------------------
Tap to rate this tab
 
# A B C D E F G H I J K L M N O P Q R S T U V W X Y Z