Song name
# A B C D E F G H I J K L M N O P Q R S T U V W X Y Z

Mest - Paradise tab

Mest - paradise (122nd and highland)
1 of the new, MEST songs
tabbed by: Al-x punk

you must figure out the timing

INTRO
e--------------------
b--------------------
g--6--7--------------
d--6--7--------------
a--4--5--------------
e--------------------
 not distorted

intro (from here everything distorted)
e--------------------
b--------------------
g--6--7--------------
d--6--7--------------
a--4--5--------------
e--------------------

verses
e--------------------
b--------------------
g-9------------------
d-9--9--7--9---------
a-7--9--7--9---------
e----7--5--7---------

chorus
e--------------------
b--------------------
g-9------------------
d-9--9--7--9---------
a-7--9--7--9---------
e----7--5--7---------
(faster than before)

e--------------------
b--------------------
g--6--7--------------
d--6--7--------------
a--4--5--------------
e--------------------

THEN ALTERNATE. 
thats all 

the new album will be soon available.
have fun
comments or corrections to: THEALXPUNK@HOTMAIL.COM
Tap to rate this tab
# A B C D E F G H I J K L M N O P Q R S T U V W X Y Z