Song name
# A B C D E F G H I J K L M N O P Q R S T U V W X Y Z

Mest - Hotel Room tab

Hotel Room by Mest

Tabbed by SabresRock6181@yahoo.com

Key:
   h - hammer on 
   p - pull off 
   \ - slide down

Intro:
E---------------------------------------|
B---------------------------------------|
G--7-7-7-7------------------------------|
D--5-5-5-5--5-5-5-5--9-9-9-9--7-7-7-7---|
A--5-5-5-5--3-3-3-3--7-7-7-7--5-5-5-5---|
E-----------3-3-3-3--7-7-7-7--5-5-5-5---|

E---------------------------------------|
B---------------------------------------|
G--7-7-7-7------------------------------|
D--5-5-5-5--5-5-5-5--9-7-5--------------|
A--5-5-5-5--3-3-3-3--7-5-3--------------|
E-----------3-3-3-3--7-5-3--------------|

Verse:
E---------------------------------------|
B---------------------------------------|
G--7-7----------------------------------|  
D--5-5------5-5------9-9------7-7-------|
A--5-5------3-3------7-7------5-5-------|
E-----------3-3------7-7------5-5-------|

Pre-Chorus
E----------------------|
B----------------------|
G----------------------|
D--5--5555555/777777---|
A--3--3333333/555555---|
E--3--3333333/555555---|

Chorus:
E---------------------------------------|
B---------------------------------------|
G--7-7----------------------------------| 
D--5-5------7-7------5-5------7-7-------|
A--5-5------5-5------3-3------5-5-------|
E-----------5-5------3-3------5-5-------|

Bridge
E---------------------------------------|
B---------------------------------------|
G--------7-7----------------------------|
D--9-9---5-5---5-5---7-7----------------|
A--7-7---5-5---3-3---5-5----------------|
E--7-7---------3-3---5-5----------------|

E---------------------------------------|
B---------------------------------------|
G-----------7---------------------------|
D--9--------5-(x 8)----5-------7--------|
A--7-(x 8)--5----------3-(x 8)---5-(x 8)|
E--7-------------------3-------5--------|


Order:
Intro
Verse x4
Pre-Chorus
Chorus x2
Verse x4
Pre-Chorus
Chorus x2
Bridge
Pre-Chorus
Chorus x6 

Pretty simple. 
It's easier to listen for the chord changes on the prechorus and bridge.

Enjoy!
Tap to rate this tab
 
# A B C D E F G H I J K L M N O P Q R S T U V W X Y Z