Song name
# A B C D E F G H I J K L M N O P Q R S T U V W X Y Z

Mest - Fuck Up Kid tab

"Fuct up Kid"
Mest
Destination Unknown
Tabbed by Chris Quinones



i've only got the main guitar part...you guys can fill in the blanks!

Intro

e---------------------------------------------------------------------
B-4-2--------------4-2-------2-2-2--4-2--------------4-4-2-2----------
G----4-4-4-4-3-4-4----4-4-4-4----------4-4-4-4-3-4-4---------4-4-4-4-4
D---------------------------------------------------------------------
A---------------------------------------------------------------------
E---------------------------------------------------------------------

Verse 1

e--------------------------------
B--------------------------------
G-4-4----------------------------
D-4-4--6-6--4-4--2-2-------------    x4
A-2-2--6-6--4-4--2-2-------------
E------4-4--2-2--0-0-------------

Pre-Chorus

e----------------------------------
E----------------------------------
B----------------------------------
G-6-6-6-6-6-6----------------------
D-6-6-6-6-6-6----------------------
A-4-4-4-4-4-4----------------------
E----------------------------------
(PALM MUTED)

Chorus

e---------------------------------------------------------------------
B---------------------------------------------------------------------
G-4-4-4-4-9-9-9-9-4-4-4-4-11-11-11-11-4-4-4-4-9-9-9-9--8-8-6-6-4-4-4-4
D-4-4-4-4-9-9-9-9-4-4-4-4-11-11-11-11-4-4-4-4-9-9-9-9--8-8-6-6-4-4-4-4
A-2-2-2-2-7-7-7-7-2-2-2-2-9--9--9--9--2-2-2-2-7-7-7-7--6-6-4-4-2-2-2-2
E---------------------------------------------------------------------

Verse 2 is all bass

Pre-Chorus

e----------------------------------
E----------------------------------
B----------------------------------
G-6-6-6-6-6-6----------------------
D-6-6-6-6-6-6----------------------
A-4-4-4-4-4-4----------------------
E----------------------------------
(PALM MUTED)

Chorus

e---------------------------------------------------------------------
B---------------------------------------------------------------------
G-4-4-4-4-9-9-9-9-4-4-4-4-11-11-11-11-4-4-4-4-9-9-9-9--8-8-6-6-4-4-4-4
D-4-4-4-4-9-9-9-9-4-4-4-4-11-11-11-11-4-4-4-4-9-9-9-9--8-8-6-6-4-4-4-4
A-2-2-2-2-7-7-7-7-2-2-2-2-9--9--9--9--2-2-2-2-7-7-7-7--6-6-4-4-2-2-2-2
E---------------------------------------------------------------------

Interlude

e---------------------------------------------------------------------
B-4-2--------------4-2-------2-2-2--4-2--------------4-4-2-2----------
G----4-4-4-4-3-4-4----4-4-4-4----------4-4-4-4-3-4-4---------4-4-4-4-4
D---------------------------------------------------------------------
A---------------------------------------------------------------------
E---------------------------------------------------------------------

Chorus x2

e---------------------------------------------------------------------
B---------------------------------------------------------------------
G-4-4-4-4-9-9-9-9-4-4-4-4-11-11-11-11-4-4-4-4-9-9-9-9--8-8-6-6-4-4-4-4
D-4-4-4-4-9-9-9-9-4-4-4-4-11-11-11-11-4-4-4-4-9-9-9-9--8-8-6-6-4-4-4-4
A-2-2-2-2-7-7-7-7-2-2-2-2-9--9--9--9--2-2-2-2-7-7-7-7--6-6-4-4-2-2-2-2
E---------------------------------------------------------------------
(PALM MUTED FIRST TIME ONLY!!!)

End on:
e-----
B-----
G-4---
D-4---
A-2---
E-----


that's about it! Have fun!!!
Squirrelly
Tap to rate this tab
# A B C D E F G H I J K L M N O P Q R S T U V W X Y Z