Guitaretab - guitar tabs
Song name
# A B C D E F G H I J K L M N O P Q R S T U V W X Y Z

Mest - Whats The Dillio tab

-------------------------------------------------------------------------------
Whatís The Dillio - Mest
-------------------------------------------------------------------------------

Another simply song by these guys itís all on there, Iím not too sure about
the Solo but sounds fine to me, also he sometime near the end plays power chords
with distortion instead of the ska strokes
   

Intro
e|-------------------------------------------------|
B|-------------------------------------------------|
G|-------------------------------------------------|
D|------6-9----------------6-9---------------------|
A|-7-7-7---------6-9--7-7-7---------6--------------|
E|----------7-7-7---------------7-7---7------------|
Intro cont
e|-------------------------------------------------|
B|-------------------------------------------------|
G|-------------------------------------------------|
D|------6-9----------------6-9---------------------|
A|-7-7-7---------6-9--7-7-7----7-9-11--------------|
E|----------7-7-7----------------------------------|

Verse ska upsotrokes
e|--7-7---7-7---9--9---------|
B|--9-9---7-7---11-11--------|
G|--9-9---8-8---11-11--------|
D|--9-9---9-9---11-11--------|
A|--7-7-ó-9-9---9--9---------|
E|-------------------------|

Pre chorus (he plays this near the end ansd strums instead on hitting once)
e|------------------|
B|------------------|
G|------4-----------|
D|-2----4----4------|
A|-2----2----4------|
E|-0---------2------|
[ Tab from: http://www.guitaretab.com/m/mest/34390.html ]
Chorus (again skaupstrokes) but does put distortion on near end
e|-7----7----7----7----7----7----7----7----7----7----7----7----7----7----9----9-| 
B|-9----9----7----7----9----9----7----7----9----9----7----7----9----9---11---11-| 
G|-9----9----8----8----9----9----8----8----9----9----8----8----9----9---11---11-|
D|-9----9----9----9----9----9----9----9----9----9----9----9----9----9---11---11-| 
A|-7----7----9----9----7----7----9----9----7----7----9----9----7----7----9----9-| 
E|-----------7----7--------------7----7--------------7----7---------------------|

Solo
|--------------------------------------------------------------|
|--------------------------------------------------------------|
|-4--9-9-9-8------------------------9-9-9-8--------------------|
|------------9ó9-11-11--13--11--------------9---9-9-9-11--8----|
|----------------------------------9-------------------------9-|
|--------------------------------------------------------------|
Solo cont                                                                           
|----------------------------------------------------------------|
|-9---9--9--7-----------------------9---9--9--7------------------|
|-9---9--9--8---8---9--9ó-9-11--9---9---9--9--8---8--------------|
|---------------9--11-11-11-13-11-----------------9---12---------|
|----------------------------------------------------------------|
|----------------------------------------------------------------|

So its more or less all there enjoy and please rate!

e-mail funkeymonkey10@hotmail.com


===============================================================================
Related for Whats The Dillio tab