Song name
# A B C D E F G H I J K L M N O P Q R S T U V W X Y Z

Mest - Missing My Baby Tonight tab

-------------------------------------------------------------------------------
			     Missing My Baby Tonight - Mest
-------------------------------------------------------------------------------
Tabbed by: Gorre
Email: gorre9090@hotmail.com

Tuning: EADGBe

This is my first tab

This is basically the whole rhythm through the song im not sure if its entirely correct, 
when i find out the lead ill post it.

e|-3333-----------------3333-------------------------------------------------|
B|-3333-3333-1111/33-11-3333-3333-1111/33-11---------------------------------|
G|------2222-0000/22-00------2222-0000/33-00---------------------------------|
D|---------------------------------------------------------------------------|
A|---------------------------------------------------------------------------|
E|---------------------------------------------------------------------------|
and so on

heres another version
e|---------------------------------------------------------------------------|
B|-8888-----------------8888-------------------------------------------------|
G|-7777-7777-5555/77-55-7777-7777-5555/77-55---------------------------------|
D|------7777-5555/77-55------7777-5555/77-55---------------------------------|
A|---------------------------------------------------------------------------|
E|---------------------------------------------------------------------------|

| /  slide up
| \  slide down
| h  hammer-on
| p  pull-off
| ~  vibrato
| +  harmonic
| x  Mute note
===============================================================================
Tap to rate this tab
# A B C D E F G H I J K L M N O P Q R S T U V W X Y Z