Song name
# A B C D E F G H I J K L M N O P Q R S T U V W X Y Z

Metal Castle - Time Trevor tab

METAL CaSTLe - Time Trevor
Tuning: Drop D

Verse
e----------------|
B----------------|
G----------------|
D-1-000-00000-00-|
A-1-000-00000-00-|
E-1-000-00000-00-|    X4

Chorus
e----------------------|
B----------------------|
G----------------------|
D-333-5-7-9-33-55-7-9--|
A-333-5-7-9-33-55-7-9--|
E-333-5-7-9-33-55-7-9--|

Chorus
e-----------------------|
B-----------------------|
G-----------------------|
D-333-5-7-9-3~----------|
A-333-5-7-9-3~----------|
E-333-5-7-9-3~----------|

Verse
e----------------|
B----------------|
G----------------|
D-1-000-00000-00-|
A-1-000-00000-00-|
E-1-000-00000-00-|    X4

Chorus
e----------------------|
B----------------------|
G----------------------|
D-333-5-7-9-33-55-7-9--|
A-333-5-7-9-33-55-7-9--|
E-333-5-7-9-33-55-7-9--|

Chorus
e-----------------------|
B-----------------------|
G-----------------------|
D-333-5-7-9-3~----------|
A-333-5-7-9-3~----------|
E-333-5-7-9-3~----------|

Verse
e----------------|
B----------------|
G----------------|
D-1-000-00000-00-|
A-1-000-00000-00-|
E-1-000-00000-00-|    X4

Chorus
e----------------------|
B----------------------|
G----------------------|
D-333-5-7-9-33-55-7-9--|
A-333-5-7-9-33-55-7-9--|
E-333-5-7-9-33-55-7-9--|

Chorus
e-----------------------|
B-----------------------|
G-----------------------|
D-333-5-7-9-3~----------|
A-333-5-7-9-3~----------|
E-333-5-7-9-3~----------|

Breakdown
e---------------|
B---------------|
G-5--4---4/5----|
D-5--4---4/5----|
A-3--2---2/3----|
E--00-00--------|  X8

Then
e----------------------|
B----------------------|
G-55557777999911111111-|
D-5555777799991111111--|
A-3333555577779-9-9-9--|
E---------------------0| 
Tap to rate this tab
# A B C D E F G H I J K L M N O P Q R S T U V W X Y Z