Song name
# A B C D E F G H I J K L M N O P Q R S T U V W X Y Z

Metal Church - In Harms Way tab

#----------------------------------PLEASE NOTE---------------------------------#
#This file is the author's own work and represents their interpretation of the #
#song. You may only use this file for private study, scholarship, or research. #
#------------------------------------------------------------------------------#

IN HARM'S WAY
As recorded by METAL CHURCH
(From the 1991 Album THE HUMAN FACTOR)

Transcribed by vicrattlehead


Words by J. MARSHALL AND K. VANDERHOOF Music by METAL CHURCH
Arranged by METAL CHURCH

Gtr I (Eb Ab Db Gb Bb Eb) - 'acoustic'
Gtr II (Eb Ab Db Gb Bb Eb) - 'acoustic'
Gtr III (Eb Ab Db Gb Bb Eb) - 'rhythm'
Gtr IV (Eb Ab Db Gb Bb Eb) - 'lead'
Gtr V (Eb Ab Db Gb Bb Eb) - 'acoustic'
Gtr VI (Eb Ab Db Gb Bb Eb) - 'lead'

 Intro
  Q=120
 4/4
  Gtr V
  W             W                W
  Gtr I
  H.      E E   E E E E E Q  E   E E E E E Q  E
|-------------|----------------|----------------|
|-------------|----------------|----------------|
|-------------|-----2-----0----|-----2----------|
|-------------|---2---2------2-|---2---2---3--2-|
|-------------|-0-------0------|-0-------0------|
|-----------0-|----------------|----------------|


  W                Q.   E +H
                   |    |  |
                   /    /  /

  E E E E E Q  E   Q.   E +E  E E E
|----------------|-0----0-(0)-0-------|
|----------------|-1----3-(3)---3-----|
|-----2-----0----|-0----0-(0)-----0---|
|---2---2------2-|-2----4-(4)---------|
|-0-------0------|-0----0-(0)---------|
|----------------|--------------------|


 4/4
  W                W                W                Q.   E +H
                                                     |    |  |
                                                     /    /  /

  E E E E E Q  E   E E E E E Q  E   E E E E E Q  E   Q.   E +E  E E E
|----------------|----------------|----------------|-0----0-(0)-0------|
|----------------|----------------|----------------|-1----3-(3)--------|
|-----2-----0----|-----2----------|-----2-----0----|-0----0-(0)--------|
|---2---2------2-|---2---2---3--2-|---2---2------2-|-2----4-(4)--------|
|-0-------0------|-0-------0------|-0-------0------|-0----0-(0)---0-2--|
|----------------|----------------|----------------|-------------------|


  E E E E E E E E   Q  E E E E E E   E E E E E E Q    H.      E E
|-----------------|----------------|-------0--------|-0-----------|
|-------1---------|------3---------|-----1---1------|-1-----------|
|-----0---0-------|--------2-------|---2-------2----|-2-----------|
|---2-------2-----|-0--0-----0-0-2-|-3-----------3--|-3-----------|
|-3-----------2-3-|----------------|----------------|-------------|
|-----------------|----------------|----------------|-----------0-|


   Verse
                                                       C         D
   4/4
    Gtr V
    W                W                W                 Q.        E +H
                                                        |         |  |
                                                        /         /  /

    Gtr I
    E E E E E Q  E   E E E E E Q  E   E E E E E Q  E    E   E  E  E  E  E  E E
||-----------------|----------------|----------------|-------------------------|
||o----------------|----------------|----------------|-13--------10------------|
||------2-----0----|-----2----------|-----2-----0----|-----12-------11---------|
||----2---2------2-|---2---2---3--2-|---2---2------2-|--------10-------12-10-9-|
||o-0-------0------|-0-------0------|-0-------0------|-------------------------|
||-----------------|----------------|----------------|-------------------------|


  W                W                W                 Q.        E +H
                                                      |         |  |
                                                      /         /  /

  E E E E E Q  E   E E E E E Q  E   E E E E E Q  E    E   E  E  E  E  E  E E
|----------------|----------------|----------------|-------------------------|
|----------------|----------------|----------------|-13--------10------------|
|-----2-----0----|-----2----------|-----2-----0----|-----12-------11---------|
|---2---2------2-|---2---2---3--2-|---2---2------2-|--------10-------12-10-9-|
|-0-------0------|-0-------0------|-0-------0------|-------------------------|
|----------------|----------------|----------------|-------------------------|


                                                       1.
   W                       W                 W          W
   E S S E E  +Q   E  E    W                 W          E E E E E Q  E
|-----------------------|-----------------|--3--------|----------------|
|-----------------------|-----------------|--1--------|----------------|
|--5-------5--(5)-------|--7--------------|--2--------|-----2-----0----|
|--5-------5--(5)-------|--7--------------|--3--------|---2---2------2-|
|--3-3-3-3-3--(3)--2--3-|--5--------------|-----------|-0-------0------|
|-----------------------|-----------------|-----------|----------------|
|
| Gtr II
|  H          +Q   E  E    H     +Q   E E    W          W
|-----------------------|-----------------|-----------|----------------|
|-----------------------|-----------------|-----------|----------------|
|-----------------------|-------------7-9-|-10--------|----------------|
|------------------9-10-|-12----(12)------|-----------|----------------|
|-15---------(15)-------|-----------------|-----------|----------------|
|-----------------------|-----------------|-----------|----------------|


  W                W                 Q.        E +H
                                     |         |  |
                                     /         /  /

  E E E E E Q  E   E E E E E Q  E    E   E  E  E  E  E  E E
|----------------|----------------|----------------------------||
|----------------|----------------|-13--------10--------------o||
|-----2----------|-----2-----0----|-----12-------11------------||
|---2---2---3--2-|---2---2------2-|--------10-------12-10-9----||
|-0-------0------|-0-------0------|---------------------------o||
|----------------|----------------|----------------------------||
|
| W                W                 W
|----------------|----------------|----------------------------||
|----------------|----------------|---------------------------o||
|----------------|----------------|----------------------------||
|----------------|----------------|----------------------------||
|----------------|----------------|---------------------------o||
|----------------|----------------|----------------------------||


  2.
  Gtrs III, IV
    PM--|         PM    PM--|         PM    PM--|
  E S S E E +Q.   E   E S S E E +Q.   E   E S S E E +Q   E E
|-------------------|-------------------|--------------------|
|-------------------|-------------------|--------------------|
|-2-------5-(5)-----|-2-------5-(5)-----|-2-------5-(5)--7-7-|
|-2-------5-(5)-----|-2-------5-(5)-----|-2-------5-(5)--7-7-|
|-0-0-0-0-3-(3)-----|-0-0-0-0-3-(3)-----|-0-0-0-0-3-(3)--5-5-|
|-----------------3-|-----------------3-|--------------------|


                            PM--|         PM
  +E   E  Q   +Q    Q     E S S E E +Q.   E
|-----------------------|-------------------|
|-----------------------|-------------------|
|-(7)-10-10--(10)-------|-2-------5-(5)-----|
|-(7)-10-10--(10)-------|-2-------5-(5)-----|
|-(5)--8--8---(8)-------|-0-0-0-0-3-(3)-----|
|------------------15\--|-----------------3-|


    PM--|         PM    PM--|
  E S S E E +Q.   E   E S S E E +Q   E E
|-------------------|---------------------|
|-------------------|---------------------|
|-2-------5-(5)-----|-2-------5-(5)--7-7--|
|-2-------5-(5)-----|-2-------5-(5)--7-7--|
|-0-0-0-0-3-(3)-----|-0-0-0-0-3-(3)--5-5--|
|-----------------3-|---------------------|


                                         Verse
                                          $
                                            PM|    PM|   PM    PM|   PM|   PM
  +E   E  Q   +H        +H.       Q       E E E  E E E E E   E E E E E E E E
|--------------------|----------------||-------------------|-----------------|
|--------------------|----------------||o------------------|-----------------|
|-(7)-10-10--(10)----|-(10)-----------||--9-----10-----9---|-4-----5-----4---|
|-(7)-10-10--(10)----|-(10)-----------||--7------7-----7---|-5-----5-----5---|
|-(5)--8--8---(8)----|--(8)-----------||o---0-0----0-0---0-|---0-0---0-0---0-|
|--------------------|-----------15\--||-------------------|-----------------|


    PM|   PM|   PM
  E E E E E E E E   S S S S E E Q  +S  S E
|-----------------|------------------------|
|-----------------|------------------------|
|-5-----7-----5---|-------------2--(2)-----|
|-3-----3-----3---|-------------2--(2)-----|
|---0-0---0-0---0-|-3-3-3-3-3-3-0--(0)-----|
|-----------------|----------------------1-|


    PM|    PM|   PM    PM|   PM|   PM
  E E E  E E E E E   E E E E E E E E
|------------------|------------------|
|------------------|------------------|
|-9-----10-----9---|-4-----5-----4----|
|-7------7-----7---|-5-----5-----5----|
|---0-0----0-0---0-|---0-0---0-0---0--|
|------------------|------------------|


    PM|   PM|   PM
  E E E E E E E E   S S S S S S S S S S S S S S S S   E E E E +E  Q.
|-----------------|---------------------------------|-------------------|
|-----------------|---------------------------------|-------------------|
|-5-----7-----5---|---------------------------------|-------------------|
|-3-----3-----3---|---------------------------------|-2-----3-(3)-2-----|
|---0-0---0-0---0-|-3-3-3-3-3-3-2-2-2-2-------------|-2-----3-(3)-2-----|
|-----------------|---------------------3-3-3-3-1-1-|-0-0-0-1-(1)-0-----|


                                                  To Coda
  E E E E +E  Q.     E E E E +E  Q  E   +E  Q  E +E  E Q
|------------------|------------------|-------------------|
|------------------|------------------|-------------------|
|------------------|------------------|-----5--7-(7)------|
|-3-----5-(5)-3----|-2-----3-(3)-5--2-|-(2)-5--7-(7)-2-3--|
|-3-----5-(5)-3----|-2-----3-(3)-5--0-|-(0)-3--5-(5)-2-3--|
|-1-1-1-3-(3)-1----|-0-0-0-1-(1)-3----|--------------0-1--|


 Chorus
    PM--|         PM    PM--|         PM
  E S S E E +Q.   E   E S S E E +Q.   E
|-------------------|-------------------|
|-------------------|-------------------|
|-2-------5-(5)-----|-2-------5-(5)-----|
|-2-------5-(5)-----|-2-------5-(5)-----|
|-0-0-0-0-3-(3)-----|-0-0-0-0-3-(3)-----|
|-----------------3-|-----------------3-|


    PM--|
  E S S E E +Q   E E   +E   E  Q   +Q    Q
|--------------------|------------------------|
|--------------------|------------------------|
|-2-------5-(5)--7-7-|-(7)-10-10--(10)--------|
|-2-------5-(5)--7-7-|-(7)-10-10--(10)--------|
|-0-0-0-0-3-(3)--5-5-|-(5)--8--8---(8)--------|
|--------------------|------------------15\---|


    PM--|         PM    PM--|         PM
  E S S E E +Q.   E   E S S E E +Q.   E
|-------------------|-------------------|
|-------------------|-------------------|
|-2-------5-(5)-----|-2-------5-(5)-----|
|-2-------5-(5)-----|-2-------5-(5)-----|
|-0-0-0-0-3-(3)-----|-0-0-0-0-3-(3)-----|
|-----------------3-|-----------------3-|


    PM--|
  E S S E E +Q   E E   +E   E  Q   +H        +H.       Q
|--------------------|--------------------|----------------|
|--------------------|--------------------|----------------|
|-2-------5-(5)--7-7-|-(7)-10-10--(10)----|-(10)-----------|
|-2-------5-(5)--7-7-|-(7)-10-10--(10)----|-(10)-----------|
|-0-0-0-0-3-(3)--5-5-|-(5)--8--8---(8)----|--(8)-----------|
|--------------------|--------------------|-----------15\--|


  1.
  W                 W
  Gtr I
  E E E E E Q  E    E    E  E  E           E     Q  E
|----------------|------------------------------------|
|----------------|------------------------------------|
|-----2-----0----|----------2-------------------------|
|---2---2------2-|-------2-----2-----------------3--2-|
|-0-------0------|--0----------------------0----------|
|----------------|------------------------------------|
|
| Gtr III
| W                +W
|----------------|------------------------------------|
|----------------|------------------------------------|
|-2--------------|-(2)--------------------------------|
|-2--------------|-(2)--------------------------------|
|-0--------------|-(0)--------------------------------|
|----------------|------------------------------------|
|
| Gtr IV
|                                          ~~~~~~
| W                 Q      +E  S     S     H
|----------------|------------------------------------|
|----------------|--8b10---(8)-8pb10-8pb10-8pb10r=====|
|-2--------------|------------------------------------|
|-2--------------|------------------------------------|
|-0--------------|------------------------------------|
|----------------|------------------------------------|


                              Gtr V
   W                           Q.        E   +H
                               |         |    |
                               /         /    /

   E  E     E   E E  Q  E      E   E  E  E    E  E  E E
|---------------------------|----------------------------|
|---------------------------|-13--------10---------------|
|-----------2--------0------|-----12---------11----------|
|-----2---------2-------2---|--------10---------12-10-9--|
|--0--------------0---------|----------------------------|
|---------------------------|----------------------------|
|
| +W                          +W
|---------------------------|----------------------------|
|---------------------------|----------------------------|
|-(2)-----------------------|-(2)------------------------|
|-(2)-----------------------|-(2)------------------------|
|-(0)-----------------------|-(0)------------------------|
|---------------------------|----------------------------|
|
|                 ~~
|  |----3-----|
| +Q    +Q    Q   Q.    S S    Q.        S S  H
|---------------------------|----------------------------|
|-(8)---(8)---6p==5-----5h6-|----------------------------|
|---------------------------|--7---------5p4S=2----------|
|---------------------------|----------------------------|
|---------------------------|----------------------------|
|---------------------------|----------------------------|


   W             W                W
   H.      E E   E E E E E Q  E   E E E E E Q  E
|--------------|----------------|----------------|
|--------------|----------------|----------------|
|--------------|-----2-----0----|-----2----------|
|--------------|---2---2------2-|---2---2---3--2-|
|--------------|-0-------0------|-0-------0------|
|------------0-|----------------|----------------|
|
| +W             W                W
|--------------|----------------|----------------|
|--------------|----------------|----------------|
|-(2)----------|----------------|----------------|
|-(2)----------|----------------|----------------|
|-(0)----------|----------------|----------------|
|--------------|----------------|----------------|
|
| +W             W                W
|--------------|----------------|----------------|
|--------------|----------------|----------------|
|-(2)----------|----------------|----------------|
|--------------|----------------|----------------|
|--------------|----------------|----------------|
|--------------|----------------|----------------|


  W                 Q.        E +H
                    |         |  |
                    /         /  /

  E E E E E Q  E    E   E  E  E  E  E  E E
|----------------|-------------------------|
|----------------|-13--------10------------|
|-----2-----0----|-----12-------11---------|
|---2---2------2-|--------10-------12-10-9-|
|-0-------0------|-------------------------|
|----------------|-------------------------|
|
| W                 W
|----------------|-------------------------|
|----------------|-------------------------|
|----------------|-------------------------|
|----------------|-------------------------|
|----------------|-------------------------|
|----------------|-------------------------|
|
| W                 W
|----------------|-------------------------|
|----------------|-------------------------|
|----------------|-------------------------|
|----------------|-------------------------|
|----------------|-------------------------|
|----------------|-------------------------|


  E E E E E Q  E   E E E E E Q  E   E E E E E Q  E   H    Q  E E
|----------------|----------------|----------------|--------------||
|----------------|----------------|----------------|-------------o||
|-----2-----0----|-----2----------|-----2-----0----|--------------||
|---2---2------2-|---2---2---3--2-|---2---2------2-|--------------||
|-0-------0------|-0-------0------|-0-------0------|---------3---o||
|----------------|----------------|----------------|-----------3--||


  2.
  Gtrs III, IV
    PM--|         PM    PM--|         PM
  E S S E E +Q.   E   E S S E E +Q.   E
|-------------------|-------------------|
|-------------------|-------------------|
|-2-------5-(5)-----|-2-------5-(5)-----|
|-2-------5-(5)-----|-2-------5-(5)-----|
|-0-0-0-0-3-(3)-----|-0-0-0-0-3-(3)-----|
|-----------------3-|-----------------3-|


    PM--|
  E S S E E +Q   E E   +E   E  Q   +Q    Q
|--------------------|------------------------|
|--------------------|------------------------|
|-2-------5-(5)--7-7-|-(7)-10-10--(10)--------|
|-2-------5-(5)--7-7-|-(7)-10-10--(10)--------|
|-0-0-0-0-3-(3)--5-5-|-(5)--8--8---(8)--------|
|--------------------|------------------15\---|


    PM--|         PM    PM--|         PM
  E S S E E +Q.   E   E S S E E +Q.   E
|-------------------|-------------------|
|-------------------|-------------------|
|-2-------5-(5)-----|-2-------5-(5)-----|
|-2-------5-(5)-----|-2-------5-(5)-----|
|-0-0-0-0-3-(3)-----|-0-0-0-0-3-(3)-----|
|-----------------3-|-----------------3-|


    PM--|
  E S S E E +Q   E E   +E   E  Q   +H
|--------------------|--------------------|
|--------------------|--------------------|
|-2-------5-(5)--7-7-|-(7)-10-10--(10)----|
|-2-------5-(5)--7-7-|-(7)-10-10--(10)----|
|-0-0-0-0-3-(3)--5-5-|-(5)--8--8---(8)----|
|--------------------|--------------------|


 Bridge
   W           W                      W           W
|-----------|----------------------|-----------|----------------------|
|-----------|----------------------|-----------|----------------------|
|--7--------|--5-------------------|--7--------|--5-------------------|
|--7--------|--5-------------------|--7--------|--5-------------------|
|--5--------|--3-------------------|--5--------|--3-------------------|
|-----------|----------------------|-----------|----------------------|
|
| Gtrs IV, VI
|  W           H     E     E  E  E    W           H     E     E  E  E
|-13--------|-12----15b17r15-13-12-|-13--------|-12----15b17r15-13-12-|
|--6--------|--5-----8b10r=8--6--5-|--6--------|--5-----8b10r=8--6--5-|
|-----------|----------------------|-----------|----------------------|
|-----------|----------------------|-----------|----------------------|
|-----------|----------------------|-----------|----------------------|
|-----------|----------------------|-----------|----------------------|


   W                     W
|---------------------|----------------------|
|---------------------|----------------------|
|--7------------------|--5-------------------|
|--7------------------|--5-------------------|
|--5------------------|--3-------------------|
|---------------------|----------------------|
|
|  H     +E   E  E  E    H     E     E  E  E
|-13----(13)-13-15-13-|-12----15b17r15-13-12-|
|--6-----(6)--6--8--6-|--5-----8b10r=8--6--5-|
|---------------------|----------------------|
|---------------------|----------------------|
|---------------------|----------------------|
|---------------------|----------------------|


   E E  E  E   E  E  E  E     E  E E E E E E E
|-------------------------|--------------------|
|-------------------------|--------------------|
|-------------------------|--------------------|
|--7-7--7--7---7--7--7--7-|---5--5-5-5-5-5-5-5-|
|--5-5--5--5---5--5--5--5-|---3--3-3-3-3-3-3-3-|
|-------------------------|--------------------|
|
|  Q    E  E  +Q     E  E    +W
|-13---12-----------------|--------------------|
|--6----5-15-(15)---13-15-|-(15)---------------|
|----------7--(7)----5--7-|--(7)---------------|
|-------------------------|--------------------|
|-------------------------|--------------------|
|-------------------------|--------------------|


  Gtr III
  PM----|     PM----|         PM----------|     PM----|         PM|
  S S S S S S S S S S S S S S S S   S S S S S S S S S S S S S S S S
|---------------------------------|---------------------------------|
|---------------------------------|---------------------------------|
|---------------------------------|---------------------------------|
|---------------------------------|---------------------------------|
|-2-2-2-2-----2-2-2-2-2p0-----2-2-|-2-2-2-2-----2-2-2-2-2p0-----2-2-|
|-0-0-0-0-3p0-0-0-0-0-----3p0-0-0-|-0-0-0-0-3p0-0-0-0-0-----3p0-0-0-|


  PM----------------------------|     PM|   PM|   PM|   PM|
  S S S S S S S S S S S S S S S S   E S S E S S E S S E S S
|---------------------------------|-------------------------|
|---------------------------------|-------------------------|
|---------------------------------|-------------------------|
|---------------------------------|-------------------------|
|-2-2-2-2-2-2-2-2-2-2-2-2-2-2-2-2-|-5-----6-----7-----8-----|
|-0-0-0-0-0-0-0-0-0-0-0-0-0-0-0-0-|-3-0-0-4-0-0-5-0-0-6-0-0-|
|
|                                   Gtr IV
|                                     PM|   PM|   PM|   PM|
| W                                 E S S E S S E S S E S S
|---------------------------------|-------------------------|
|---------------------------------|-------------------------|
|---------------------------------|-------------------------|
|---------------------------------|-------------------------|
|---------------------------------|-5-----6-----7-----8-----|
|---------------------------------|-3-3-3-4-4-4-5-5-5-6-6-6-|


  PM----|     PM------|         PM----------|     PM------|         PM|
  S S S S S S S S  S  S S S S S S S   S S S S S S S S  S  S S S S S S S
|-----------------------------------|-----------------------------------|
|-----------------------------------|-----------------------------------|
|-----------------------------------|-----------------------------------|
|-----------------------------------|-----------------------------------|
|-2-2-2-2-----2-2--2--2-2p0-----2-2-|-2-2-2-2-----2-2--2--2-2p0-----2-2-|
|-0-0-0-0-3p0-0-0--0--0-----3p0-0-0-|-0-0-0-0-3p0-0-0--0--0-----3p0-0-0-|
|
| Q       Q       +E    E   Q         Q       Q       +E    E   Q
|-----------------------------------|-----------------------------------|
|-----------------------------------|-----------------------------------|
|-----------------------------------|-----------------------------------|
|-----------------------------------|-----------------------------------|
|---------2-------(2)---2-----------|---------2-------(2)---2-----------|
|---------0-------(0)---0-----------|---------0-------(0)---0-----------|


  PM------------------------------|     PM|   PM|   PM|   PM|
  S S S S S S S S  S  S S S S S S S   E S S E S S E S S E S S
|-----------------------------------|-------------------------|
|-----------------------------------|-------------------------|
|-----------------------------------|-------------------------|
|-----------------------------------|-------------------------|
|-2-2-2-2-2-2-2-2--2--2-2-2-2-2-2-2-|-5-----6-----7-----8-----|
|-0-0-0-0-0-0-0-0--0--0-0-0-0-0-0-0-|-3-0-0-4-0-0-5-0-0-6-0-0-|
|
|                                       PM|   PM|   PM|   PM|
| Q       Q       +E    E   Q         E S S E S S E S S E S S
|-----------------------------------|-------------------------|
|-----------------------------------|-------------------------|
|-----------------------------------|-------------------------|
|-----------------------------------|-------------------------|
|---------2-------(2)---2-----------|-5-----6-----7-----8-----|
|---------0-------(0)---0-----------|-3-3-3-4-4-4-5-5-5-6-6-6-|


             Guitar Solo
 4/4
                     PM--|           PM
  W            E     S S E   E +Q.   E
|----------||----------------------------|
|----------||----------------------------|
|----------||--2-------------5-(5)-------|
|----------||--2-------------5-(5)-------|
|----------||--0-----0-0-0---3-(3)-------|
|----------||------------------------3---|
|
|                               ~~~
| W            Q         S S E +Q.   S S
|----------||----------------------------|
|----------||----------------------------|
|----------||-[7]pb9---------------------|
|----------||------------7-5-7-(7)---5-7-|
|----------||----------------------------|
|----------||----------------------------|


      PM--|                   PM        PM----|
  E   S S E   E   +Q.         E       E S   S E   E +Q        E   E
|-----------------------------------|----------------------------------|
|-----------------------------------|----------------------------------|
|-2-----------5---(5)---------------|-2-----------5-(5)-------7---7----|
|-2-----------5---(5)---------------|-2-----------5-(5)-------7---7----|
|-0---0-0-0---3---(3)---------------|-0-0---0-0---3-(3)-------5---5----|
|-----------------------------3-----|----------------------------------|
|
| PM--------------------|  ~~~--------------------|
|                                     |----3------|
| S S S S S S S S  S  S S +Q    S a   Q   Q     Q    S  S S S S S S S
|-----------------------------------|-8---7-----5----7--5-----5--------|
|-----------------------------------|-8-------------------8-6---8-6-5--|
|-5-------------------------------5-|----------------------------------|
|---7-5-------------------------x---|----------------------------------|
|-------7-6-5-3-5--3----------------|----------------------------------|
|---------------------5-3-(3)-------|----------------------------------|


                                     PM--|                        PM
  +E     E    Q    +Q    Q     E     S S E   E     +Q.            E
|----------------------------|----------------------------------------|
|----------------------------|----------------------------------------|
|-(7)---10---10---(10)-------|-2-------------5-----(5)----------------|
|-(7)---10---10---(10)-------|-2-------------5-----(5)----------------|
|-(5)----8----8----(8)-------|-0-----0-0-0---3-----(3)----------------|
|-----------------------15\--|------------------------------------3---|
|
|             ~~~
|  S  S  S S  H.               S   S S S S S S   S  S S S S S   S S S
|----------------------------|-----5-------------5--------------5-----|
|--8--6--5-------------------|-------8p5-6p5--------8p5-6p5-------8p5-|
|----------7--5--------------|-7b9-----------7b9------------7b9-------|
|----------------------------|----------------------------------------|
|----------------------------|----------------------------------------|
|----------------------------|----------------------------------------|


      PM----|                          PM
  E   S   S E     E   +Q.              E
|------------------------------------------|
|------------------------------------------|
|-2---------------5---(5)------------------|
|-2---------------5---(5)------------------|
|-0---0---0-0-----3---(3)------------------|
|--------------------------------------3---|
|
|           |-3-|      |-3-|     |-3-|
| S S S   S S S S S S  S S S S S S S S S S
|---------5---------5----------5-----------|
|-6p5-------8p5-6p5----8p5-6p5---8p5-6p5---|
|-----7b9----------------------------------|
|------------------------------------------|
|------------------------------------------|
|------------------------------------------|


      PM--|
  E   S S E   E     +Q            E     E
|-----------------------------------------------|
|-----------------------------------------------|
|-2-----------5-----(5)-----------7-----7-------|
|-2-----------5-----(5)-----------7-----7-------|
|-0---0-0-0---3-----(3)-----------5-----5-------|
|-----------------------------------------------|
|
|                    |-3--| |-3-| |-3-| |--3--|
| S S S S S S S T T  S  S S S S S S S S S   S S
|-----5---8p5---5-0--5----5-------------------5-|
|---8---8-----8---------8---8-5-8-5-7-------5---|
|-------------------------------------5-7b9-----|
|-----------------------------------------------|
|-----------------------------------------------|
|-----------------------------------------------|


  +E      E    Q              +Q      Q
|-----------------------------------------|
|-----------------------------------------|
|-(7)----10---10-------------(10)---------|
|-(7)----10---10-------------(10)---------|
|-(5)-----8----8--------------(8)---------|
|------------------------------------15\--|
|
|                                 ~~
|                      |-3-|
|  S   S  S S  S   +S  S S S   E  Q.
|------5----------------------------------|
|---------8p5-----------------------------|
|--7b9---------7b9r(7)-5---5---7--5-------|
|------------------------7----------------|
|-----------------------------------------|
|-----------------------------------------|


        PM--|              PM        PM--|               PM
   E    S S E  E     +Q.   E    E    S S E  E     +Q.    E
|----------------------------|--------------------------------|
|----------------------------|--------------------------------|
|--2-----------5-----(5)-----|--2-----------5-----(5)---------|
|--2-----------5-----(5)-----|--2-----------5-----(5)---------|
|--0----0-0-0--3-----(3)-----|--0----0-0-0--3-----(3)---------|
|--------------------------3-|---------------------------3----|
|
|  ~~~~~              ~~~~~~~~~~~~~~~              ~~~~
|  Q.          E     +H         Q.          E     +Q.    S  S
|----------------------------|-12----------17----(17)---------|
|-10----------13----(13)-----|-15b17-------20b22-(20)---12-13-|
|-12b14-------15b17-(15)-----|--------------------------------|
|----------------------------|--------------------------------|
|----------------------------|--------------------------------|
|----------------------------|--------------------------------|


         PM---|
   E     S  S  E     E    +Q           E E
|------------------------------------------|
|------------------------------------------|
|--2-----------------5----(5)----------7-7-|
|--2-----------------5----(5)----------7-7-|
|--0-----0--0--0-----3----(3)----------5-5-|
|------------------------------------------|
|
|                                      ~
|  S  S  S  S  S  S  S  S  S   S  S  S Q
|------------------------------------------|
|-15-13-12----13-12------------------------|
|----------14-------14-12-10---------------|
|-----------------------------14-12-10S9---|
|------------------------------------------|
|------------------------------------------|


  +E   E       Q       +Q    Q
|--------------------------------|
|--------------------------------|
|-(7)-10------10------(10)-------|
|-(7)-10------10------(10)-------|
|-(5)--8-------8-------(8)-------|
|---------------------------15\--|
|
|                       ~~~~
|      |-3--|
| +E   S  S S  S  S E  +H
|--------------------------------|
|--------------------------------|
|--------------------------------|
|-(9)--9h10p9--------------------|
|-------------12-10-8--(8)-------|
|--------------------------------|


            PM--------|                                             PM
   E        S    S     E        E       +Q.                         E
|---------------------------------------------------------------------------|
|---------------------------------------------------------------------------|
|--2----------------------------5-------(5)---------------------------------|
|--2----------------------------5-------(5)---------------------------------|
|--0--------0----0-----0--------3-------(3)---------------------------------|
|-------------------------------------------------------------------3-------|
|
|  |--3--|  |---3---|  |--3--|  |--3--|  |--3--|  |--3--|  |--3--|  |--3--|
|  S  S  S  S  S    S  S  S  S  S  S  S  S  S  S  S  S  S  S  S  S  S  S  S
|---------------------------------------------------------------------------|
|------------------------------------------------17h18h20----------18h20h22-|
|---------------------------------------16h17h19----------17h19h21----------|
|------------------------------14h15h17-------------------------------------|
|----------12h14h==15-14h15h17----------------------------------------------|
|-12h13h15------------------------------------------------------------------|


              PM-------|                               PM
   E          S      S  E     E    +Q.                 E
|--------------------------------------------------------|
|--------------------------------------------------------|
|--2--------------------------5----(5)-------------------|
|--2--------------------------5----(5)-------------------|
|--0----------0------0--0-----3----(3)-------------------|
|------------------------------------------------------3-|
|
|                                                   ~~~
|  |------3-------|
|  E     E       +E     S  S  S  S  S   S  S  S  S  E.
|--------------------------------------------------------|
|-20b22-20b22r==(20)---17--------------------------------|
|-------------------------19-17----19--17----17-19-17----|
|-----------------------------------------19-------------|
|-------------------------------19-----------------------|
|--------------------------------------------------------|


         PM------|
   E     S     S   E        E     +Q                 E     E
|---------------------------------------------------------------|
|---------------------------------------------------------------|
|--2------------------------5-----(5)----------------7-----7----|
|--2------------------------5-----(5)----------------7-----7----|
|--0-----0-----0---0--------3-----(3)----------------5-----5----|
|---------------------------------------------------------------|
|
|  S  S  S     S  +S   E       S  +S   S     S  +S   S  S  S  S
|----17-------17-(17)---------17-(17)-------17-(17)-------------|
|-------20b22---------20b22-----------20b22---------20-17-20-17-|
|-17------------------------------------------------------------|
|---------------------------------------------------------------|
|---------------------------------------------------------------|
|---------------------------------------------------------------|


   E     E         Q    +Q            Q
|----------------------------------------------------||
|----------------------------------------------------||
|--7----10--------10---(10)--------------------------||
|--7----10--------10---(10)--------------------------||
|--5-----8---------8----(8)--------------------------||
|------------------------------------15\-------------||
|
|                  ~~~~
|                                     |-----5------|
|  E     S  S     +Q     S   S  S  S  S   S  S  S  S
|-------17-------------------------------------------||
|-20b22----20b22-(20)---17---------------------------||
|---------------------------19-17--------17----------||
|---------------------------------19-17-----19-17----||
|-------------------------------------------------19-||
|----------------------------------------------------||


 Bridge
   W           W           W           W
|-----------|-----------|-----------|------------------------|
|-----------|-----------|-----------|------------------------|
|--7--------|--5--------|--7--------|--5---------------------|
|--7--------|--5--------|--7--------|--5---------------------|
|--5--------|--3--------|--5--------|--3---------------------|
|-----------|-----------|-----------|------------------------|
|
|                                      |---3----|  |--3--|
|  W           W           W           Q     Q  Q  Q  Q  Q
|-----------|-----------|-----------|-15b17r15-13------------|
|-15--------|-13--------|-15--------|-------------12-15-13---|
|-----------|-----------|-----------|------------------------|
|-----------|-----------|-----------|------------------------|
|-----------|-----------|-----------|------------------------|
|-----------|-----------|-----------|------------------------|


   W           W           E E E E E E E E
|-----------|-----------|------------------|
|-----------|-----------|------------------|
|--7--------|--5--------|--7-7-7-7-7-7-7-7-|
|--7--------|--5--------|--7-7-7-7-7-7-7-7-|
|--5--------|--3--------|--5-5-5-5-5-5-5-5-|
|-----------|-----------|------------------|
|
|  W           W           W
|-----------|-----------|------------------|
|-15--------|-13--------|-15---------------|
|-----------|-----------|------------------|
|-----------|-----------|------------------|
|-----------|-----------|------------------|
|-----------|-----------|------------------|


                                                              D.S. al Coda
   E        E        E        E        E        E        E        E
|----------------------------------------------------------------------------|
|----------------------------------------------------------------------------|
|----------------------------------------------------------------------------|
|--3--------3--------3--------3--------3--------3--------3--------3----------|
|--3--------3--------3--------3--------3--------3--------3--------3----------|
|--1--------1--------1--------1--------1--------1--------1--------1----------|
|
|  |--3--|  |--3--|  |--3--|  |--3--|  |--3--|  |--3--|  |--3--|  |--3--|
|  S  S  S  S  S  S  S  S  S  S  S  S  S  S  S  S  S  S  S  S  S  S  S  S
|----------12-13-15----------13-15-17----------15-17-19----------17-19-20----|
|-12-13-15----------13-15-17----------15-17-18----------17-18-20-------------|
|----------------------------------------------------------------------------|
|----------------------------------------------------------------------------|
|----------------------------------------------------------------------------|
|----------------------------------------------------------------------------|


 Chorus
  &
    PM--|         PM    PM--|         PM
  E S S E E +Q.   E   E S S E E +Q.   E
|-------------------|-------------------|
|-------------------|-------------------|
|-2-------5-(5)-----|-2-------5-(5)-----|
|-2-------5-(5)-----|-2-------5-(5)-----|
|-0-0-0-0-3-(3)-----|-0-0-0-0-3-(3)-----|
|-----------------3-|-----------------3-|


    PM--|
  E S S E E +Q   E E   +E   E  Q   +H
|--------------------|--------------------|
|--------------------|--------------------|
|-2-------5-(5)--7-7-|-(7)-10-10--(10)----|
|-2-------5-(5)--7-7-|-(7)-10-10--(10)----|
|-0-0-0-0-3-(3)--5-5-|-(5)--8--8---(8)----|
|--------------------|--------------------|


    PM--|         PM    PM--|         PM
  E S S E E +Q.   E   E S S E E +Q.   E
|-------------------|-------------------|
|-------------------|-------------------|
|-2-------5-(5)-----|-2-------5-(5)-----|
|-2-------5-(5)-----|-2-------5-(5)-----|
|-0-0-0-0-3-(3)-----|-0-0-0-0-3-(3)-----|
|-----------------3-|-----------------3-|


    PM--|
  E S S E E +Q   E E   +E   E  Q   +H
|--------------------|--------------------|
|--------------------|--------------------|
|-2-------5-(5)--7-7-|-(7)-10-10--(10)----|
|-2-------5-(5)--7-7-|-(7)-10-10--(10)----|
|-0-0-0-0-3-(3)--5-5-|-(5)--8--8---(8)----|
|--------------------|--------------------|


    PM--|         PM    PM--|         PM
  E S S E E +Q.   E   E S S E E +Q.   E
|-------------------|-------------------|
|-------------------|-------------------|
|-2-------5-(5)-----|-2-------5-(5)-----|
|-2-------5-(5)-----|-2-------5-(5)-----|
|-0-0-0-0-3-(3)-----|-0-0-0-0-3-(3)-----|
|-----------------3-|-----------------3-|


    PM--|
  E S S E E +Q   E E   +E   E  Q   +H
|--------------------|--------------------|
|--------------------|--------------------|
|-2-------5-(5)--7-7-|-(7)-10-10--(10)----|
|-2-------5-(5)--7-7-|-(7)-10-10--(10)----|
|-0-0-0-0-3-(3)--5-5-|-(5)--8--8---(8)----|
|--------------------|--------------------|


    PM--|         PM    PM--|         PM
  E S S E E +Q.   E   E S S E E +Q.   E
|-------------------|-------------------|
|-------------------|-------------------|
|-2-------5-(5)-----|-2-------5-(5)-----|
|-2-------5-(5)-----|-2-------5-(5)-----|
|-0-0-0-0-3-(3)-----|-0-0-0-0-3-(3)-----|
|-----------------3-|-----------------3-|


    PM--|
  E S S E E +Q   E E   +E   E  Q   +H        +H.       Q
|--------------------|--------------------|----------------||
|--------------------|--------------------|----------------||
|-2-------5-(5)--7-7-|-(7)-10-10--(10)----|-(10)-----------||
|-2-------5-(5)--7-7-|-(7)-10-10--(10)----|-(10)-----------||
|-0-0-0-0-3-(3)--5-5-|-(5)--8--8---(8)----|--(8)-----------||
|--------------------|--------------------|-----------15\--||


 Outro solo
      PM--|                     PM
  E   S S E   E   +Q.           E
|-----------------------------------|
|-----------------------------------|
|-2-----------5---(5)---------------|
|-2-----------5---(5)---------------|
|-0---0-0-0---3---(3)---------------|
|-------------------------------3---|
|
| Gtr IV
| S S S S S S S S  S  S S S S S S S
|-----------------------------------|
|-----------------------------------|
|-2-2-2-2-2-2-5-5--5--5-5-5-5-5-5-5-|
|-----------------------------------|
|-----------------------------------|
|-----------------------------------|


      PM--|                             PM
  E   S S E    E    +Q.                 E
|--------------------------------------------|
|--------------------------------------------|
|-2------------5----(5)----------------------|
|-2------------5----(5)----------------------|
|-0---0-0-0----3----(3)----------------------|
|---------------------------------------3----|
|
| S S S S S S  S  S  S   S  S  S  S  S  S  S
|--------------------------------------------|
|--------------------------------------------|
|-9-9-9-9-9-9-12-12-12--12-12-12-12-12-12-12-|
|--------------------------------------------|
|--------------------------------------------|
|--------------------------------------------|


         PM---|
   E     S  S  E     E    +Q         E   E
|--------------------------------------------|
|--------------------------------------------|
|--2-----------------5----(5)--------7---7---|
|--2-----------------5----(5)--------7---7---|
|--0-----0--0--0-----3----(3)--------5---5---|
|--------------------------------------------|
|
|  S  S  S  S  S  S  S  S  S   S S S S S S S
|-15-------13-------12--------10-----8-------|
|----13-12----12s10----10s=8-----8s5---5-5-5-|
|--------------------------------------------|
|--------------------------------------------|
|--------------------------------------------|
|--------------------------------------------|


  +E       E      Q        +H
|---------------------------------------|
|---------------------------------------|
|-(7)-----10-----10-------(10)----------|
|-(7)-----10-----10-------(10)----------|
|-(5)------8------8--------(8)----------|
|---------------------------------------|
|
|                              ~~~~~~~
|  |-3--|  |-3-|
|  S  S S  S S S  S S S S   S  E. +Q
|--8--7-5-------------------------------|
|----------8-6-5------------------------|
|-----------------7-5---5---7--5--(5)---|
|---------------------7-----------------|
|---------------------------------------|
|---------------------------------------|


      PM--|                         PM      PM--|                          PM
  E   S S  E      E   +Q.           E   E   S S  E      E   +Q.            E
|-------------------------------------|--------------------------------------|
|-------------------------------------|--------------------------------------|
|-2---------------5---(5)-------------|-2---------------5---(5)--------------|
|-2---------------5---(5)-------------|-2---------------5---(5)--------------|
|-0---0-0--0------3---(3)-------------|-0---0-0--0------3---(3)--------------|
|-----------------------------------3-|------------------------------------3-|
|
|                                                                    ~~~~~~
| S S S S +E      S S  S  S S S S S E   S S S S +E      S S  S   S S S +Q
|-------------------------------------|----------------------------5---------|
|-------------------------------------|--------------------------5---8-(8)---|
|-x-5---5-(5)b5.5---------------------|-7-5---5-(5)b5.5-7-5--7b9-------------|
|-----7-----------7-5-----5-----------|-----7--------------------------------|
|----------------------7----7-6-5-3---|--------------------------------------|
|-----------------------------------5-|--------------------------------------|


      PM--|
  E   S S  E  E   +Q            E      E        +E     E    Q          +H
|---------------------------------------------|-------------------------------|
|---------------------------------------------|-------------------------------|
|-2-----------5---(5)-----------7------7------|-(7)---10---10---------(10)----|
|-2-----------5---(5)-----------7------7------|-(7)---10---10---------(10)----|
|-0---0-0--0--3---(3)-----------5------5------|-(5)----8----8----------(8)----|
|---------------------------------------------|-------------------------------|
|
| S S S S +E  S S  S   S S S    S    S S    S    S  S  S S  S  S S  S   H
|------------------------5-----------5------5-|--5--7--8-7--8s10-8-10--12/----|
|----------------------5---8b10-8b10---8b10---|-------------------------------|
|-7p5---5-(5)-7-5--7b9------------------------|-------------------------------|
|-----7---------------------------------------|-------------------------------|
|---------------------------------------------|-------------------------------|
|---------------------------------------------|-------------------------------|


         PM---|                              PM
   E     S  S  E     E    +Q.                E
|---------------------------------------------------|
|---------------------------------------------------|
|--2-----------------5----(5)-----------------------|
|--2-----------------5----(5)-----------------------|
|--0-----0--0--0-----3----(3)-----------------------|
|--------------------------------------------3------|
|
|  S  S  S  S  S  S  S  S  S  S  S  S  S  S  S  S
|---------------------------------------------------|
|---------------------------------------------------|
|-------------17------------------------------------|
|-19-19-19-19----19-19-19-19p17----17---------------|
|-------------------------------19----19-18-17-15---|
|---------------------------------------------------|


         PM---|                             PM         PM---|
   E     S  S  E     E    +Q.               E    E     S  S  E     E    +Q
|---------------------------------------------|-----------------------------------|
|---------------------------------------------|-----------------------------------|
|--2-----------------5----(5)-----------------|--2-----------------5----(5)-------|
|--2-----------------5----(5)-----------------|--2-----------------5----(5)-------|
|--0-----0--0--0-----3----(3)-----------------|--0-----0--0--0-----3----(3)-------|
|-------------------------------------------3-|-----------------------------------|

             E         E
-----------------------|
-----------------------|
--------7---------7----|
--------7---------7----|
--------5---------5----|
-----------------------|

|
|                                    ~~~~~~~
|  S  S  S  S  S  S  S  S  S   E     S  +Q       S  S  S  S  S  S  S  S  S     +S
|---------------------------------------------|------------------------------------|
|---------------------------------------------|------------------------------------|
|-------------17--------------19b21-19-(19)---|-------------17-------17-19b21r(19--|
|-19-19-19-19----19-19-19-19------------------|-19-19-19-19----19-19---------------|
|---------------------------------------------|------------------------------------|
|---------------------------------------------|------------------------------------|

S  S  S     +E     S
-----------------------|
-----------------------|
p17----19b21r(19)p==17-|
----19-----------------|
-----------------------|
-----------------------|


  +E        E        Q           +H
|---------------------------------------------------------------------|
|---------------------------------------------------------------------|
|-(7)------10-------10----------(10)----------------------------------|
|-(7)------10-------10----------(10)----------------------------------|
|-(5)-------8--------8-----------(8)----------------------------------|
|---------------------------------------------------------------------|
|
|              ~~~~~
|  S     S  S  S     E  S     S   S     S  S     S  S     S  S     S
|----------17-------17-------17--------17-------17-------17-------17--|
|-------17----20b22----20b22-----20b22----20b22----20b22----20b22-----|
|-19b21---------------------------------------------------------------|
|---------------------------------------------------------------------|
|---------------------------------------------------------------------|
|---------------------------------------------------------------------|


            PM--|                                    PM
   E        S S  E        E +Q.                      E
|---------------------------------------------------------|
|---------------------------------------------------------|
|--2----------------------5-(5)---------------------------|
|--2----------------------5-(5)---------------------------|
|--0--------0-0--0--------3-(3)---------------------------|
|----------------------------------------------------3----|
|
|  |--3--|       |--3--|     |--3--|  |--3--|
|  S  S  S  E    S  S  S  E  S  S  S  S  S  S  S  S  S  S
|-17h20p17------17h20p17----17h20p17----17----------------|
|----------20------------20----------20----20-20-17----17-|
|---------------------------------------------------19----|
|---------------------------------------------------------|
|---------------------------------------------------------|
|---------------------------------------------------------|


         PM---|                            PM
   E     S  S  E  E +Q.                    E
|---------------------------------------------|
|---------------------------------------------|
|--2--------------5-(5)-----------------------|
|--2--------------5-(5)-----------------------|
|--0-----0--0--0--3-(3)-----------------------|
|------------------------------------------3--|
|
|                                          ~~
|                        |--3--|  |--3--|
|  S  S  S  S  E  E  E   S  S  S  S  S  S  E
|---------------------------------------------|
|---------------------------------------------|
|-20p19p17-19-17-19p17------------------------|
|-----------------------19p17----17-----------|
|-----------------------------19----19p17-15--|
|---------------------------------------------|


         PM---|
   E     S  S  E        E    +Q              E     E
|-------------------------------------------------------|
|-------------------------------------------------------|
|--2--------------------5----(5)-------------7-----7----|
|--2--------------------5----(5)-------------7-----7----|
|--0-----0--0--0--------3----(3)-------------5-----5----|
|-------------------------------------------------------|
|
|                       ~~~~~
|  E     S  S  S     S  E     S  T  T  S  S  E     S  S
|-------------------------------------------------------|
|-------17-20-------17-------17h18p17----17-------------|
|-19b21-------19b21----19b21----------19----19b21r19p17-|
|-------------------------------------------------------|
|-------------------------------------------------------|
|-------------------------------------------------------|


  +E     E     Q           +H
|---------------------------------|
|---------------------------------|
|-(7)---10----10----------(10)----|
|-(7)---10----10----------(10)----|
|-(5)----8-----8-----------(8)----|
|---------------------------------|
|
|                       ~~~~~~~
|  S  S  S  S  S  S  S  S  +H
|---------------------------------|
|---------------------------------|
|-19p17----17-19p17----17-(17)----|
|-------19----------19------------|
|---------------------------------|
|---------------------------------|


         PM------|       PM-------------|
   E     S  S  S  S  E   S  S S S S S S S
|-----------------------------------------|
|-----------------------------------------|
|--2-----------------5--------------------|
|--2-----------------5--------------------|
|--0-----0--0--0--0--3---3--3-3-3-3-3-3-3-|
|-----------------------------------------|
|
|                    ~~~~~~~
|  S  S  S  S  S  S  E  +H
|-20p19p17----17-19-20-(20)---------------|
|----------20-----------------------------|
|-----------------------------------------|
|-----------------------------------------|
|-----------------------------------------|
|-----------------------------------------|


         PM------|       PM-------------|          PM------|       PM-------------|
   E     S  S  S  S  E   S  S S S S S S S    E     S  S  S  S  E   S  S S S S S S S
|-----------------------------------------|-----------------------------------------|
|-----------------------------------------|-----------------------------------------|
|--2-----------------5--------------------|--2-----------------5--------------------|
|--2-----------------5--------------------|--2-----------------5--------------------|
|--0-----0--0--0--0--3---3--3-3-3-3-3-3-3-|--0-----0--0--0--0--3---3--3-3-3-3-3-3-3-|
|-----------------------------------------|-----------------------------------------|
|
|                    ~~~~~~~                                   ~~~~~~~
|  S  S  S  S  S  S  E  +H                   S  S  S  S  S  S  E  +H
|-20p19p17----17-19-22-(22)---------------|-20p19p17----17-19-20-(20)---------------|
|----------20-----------------------------|----------20-----------------------------|
|-----------------------------------------|-----------------------------------------|
|-----------------------------------------|-----------------------------------------|
|-----------------------------------------|-----------------------------------------|
|-----------------------------------------|-----------------------------------------|


   Q   Q      Q   Q        Q   Q      H
|-----------------------|---------------------*|
|-----------------------|---------------------*|
|--7---9------7---9-----|--7---9--------------*|
|--7---9------7---9-----|--7---9------3-------*|
|--5---7------5---7-----|--5---7------3-------*|
|-----------------------|-------------1-------*|
|
|                                     ~~~~~
|  Q   Q      Q   Q        Q   Q      H
|-22--22b24--22--22b24--|-22--22b24--22b25----*|
|-----------------------|---------------------*|
|-----------------------|---------------------*|
|-----------------------|---------------------*|
|-----------------------|---------------------*|
|-----------------------|---------------------*|

Duration Legend
---------------
W - whole; H - half; Q - quarter; E - 8th; S - 16th; T - 32nd; X - 64th; a - acciaccatura
+ - note tied to previous; . - note dotted; .. - note double dotted
Uncapitalized letters represent notes that are staccato (1/2 duration)
Irregular groupings are notated above the duration line
Duration letters will always appear directly above the note/fret number it represents the
duration for.  Duration letters with no fret number below them represent rests.  Multi-
bar rests are notated in the form Wxn, where n is the number of bars to rest for.  Low
melody durations appear below the staff

Tablature Legend
----------------
 h   - hammer-on
 p   - pull-off
 b   - bend
 pb  - pre-bend
 r   - bend release (if no number after the r, then release immediately)
 /\  - slide into or out of (from/to "nowhere")
 s   - legato slide
 S   - shift slide
 - natural harmonic
[n]  - artificial harmonic
n(n) - tapped harmonic
 ~   - vibrato
 tr  - trill
 T   - tap
 TP  - trem. picking
 PM  - palm muting
\n/  - tremolo bar dip; n = amount to dip
 \n  - tremolo bar down
 n/  - tremolo bar up
/n\  - tremolo bar inverted dip
 =   - hold bend; also acts as connecting device for hammers/pulls
 <> - volume swell (louder/softer)
 x   - on rhythm slash represents muted slash
 o   - on rhythm slash represents single note slash

Misc Legend
-----------
 |  - bar
||  - double bar
||o - repeat start
o|| - repeat end
*|  - double bar (ending)
 :  - bar (freetime)
 $  - Segno
 &  - Coda
Tempo markers -  = BPM(8/16=s8/s16), where s8 = swing 8ths, s16 = swing 16ths
Tap to rate this tab
# A B C D E F G H I J K L M N O P Q R S T U V W X Y Z