Song name
# A B C D E F G H I J K L M N O P Q R S T U V W X Y Z

Metal Church - The Powers That Be tab

#----------------------------------PLEASE NOTE---------------------------------#
#This file is the author's own work and represents their interpretation of the #
#song. You may only use this file for private study, scholarship, or research. #
#------------------------------------------------------------------------------#

THE POWERS THAT BE
As recorded by Metal Church
(From the 1989 Album BLESSING IN DISGUISE)

Transcribed by Pete (Delirium_Veil)
	

Words and Music by Craig Wells and Kurdt Vanderhoof
Arranged by Metal Church

Gtr I (E A D G B E) - 'Craig Wells'
Gtr II (E A D G B E) - 'John Marshall'
Gtr III (E A D G B E) - 'John - harmony'

 Intro
  Q=240
  N.C.
 4/4
  Gtr I
  PM|   PM|    PM|      PM|    PM|      PM|   PM|    PM|     PM|   PM|
  E E E E E  E E E    E E E  E E E Q    E E E E E  E E E   E E E E E E Q
|------------------|------------------|------------------|-----------------|
|------------------|------------------|------------------|-----------------|
|------------------|------------------|------------------|-----------------|
|------------------|---------------9--|------------------|-----------------|
|-----9-----11-----|-12-----11--------|-----9-----11-----|-7-----9-----5---|
|-0-0---0-0----0-0-|----0-0----0-0----|-0-0---0-0----0-0-|---0-0---0-0-----|


  PM|   PM|    PM|      PM|    PM|      PM|
  E E E E E  E E E    E E E  E E E Q    E E H     Q     H    Q  Q
|------------------|------------------|--------------|--------------|
|------------------|------------------|--------------|--------------|
|------------------|------------------|--------------|--------------|
|------------------|---------------9--|-----9--------|--------------|
|-----9-----11-----|-12-----11--------|----------12--|-11----0--0---|
|-0-0---0-0----0-0-|----0-0----0-0----|-0-0----------|--------------|
|
| Gtr II
| W                   W                 Q   H     Q     H    Q  Q
|------------------|------------------|--------------|--------------|
|------------------|------------------|--------------|--------------|
|------------------|------------------|-----9--------|--------------|
|------------------|------------------|----------12--|-11-----------|
|------------------|------------------|--------------|-------0--0---|
|------------------|------------------|--------------|--------------|


  E5
  PM|   PM|    PM|       PM|    PM|
  E E E E E  E E E    E  E E  E E E Q
|------------------|-------------------|
|------------------|-------------------|
|------------------|-------------------|
|------------------|----------------9--|
|-----9-----11-----|-12------11--------|
|-0-0---0-0----0-0-|-----0-0----0-0----|
|
| W                  +W
|------------------|-------------------|
|------------------|-------------------|
|------------------|-------------------|
|-2----------------|-(2)---------------|
|-2----------------|-(2)---------------|
|-0----------------|-(0)---------------|


   PM-|   PM|    PM|       PM|   PM|
   E  E E E E  E E E    E  E E E E E Q
|--------------------|-------------------|
|--------------------|-------------------|
|--------------------|-------------------|
|--------------------|-------------------|
|-------9-----11-----|--7------9-----5---|
|--0--0---0-0----0-0-|-----0-0---0-0-----|
|
| +W                   +W
|--------------------|-------------------|
|--------------------|-------------------|
|--------------------|-------------------|
|-(2)----------------|-(2)---------------|
|-(2)----------------|-(2)---------------|
|-(0)----------------|-(0)---------------|


   PM-|   PM|    PM|       PM|    PM|       PM-|
   E  E E E E  E E E    E  E E  E E E Q     E  E H     Q     H    Q  Q
|--------------------|-------------------|----------------|--------------|
|--------------------|-------------------|----------------|--------------|
|--------------------|-------------------|----------------|--------------|
|--------------------|----------------9--|-------9--------|--------------|
|-------9-----11-----|-12------11--------|------------12--|-11----0--0---|
|--0--0---0-0----0-0-|-----0-0----0-0----|--0--0----------|--------------|
|
| +W                   +W                  +Q    H     Q     H    Q  Q
|--------------------|-------------------|----------------|--------------|
|--------------------|-------------------|----------------|--------------|
|--------------------|-------------------|-------9--------|--------------|
|-(2)----------------|-(2)---------------|-(2)--------12--|-11-----------|
|-(2)----------------|-(2)---------------|-(2)------------|-------0--0---|
|-(0)----------------|-(0)---------------|-(0)------------|--------------|


    N.C.
    Gtrs I, II
    PM|   PM|    PM|      PM|    PM|      PM|   PM|    PM|     PM|   PM|
    E E E E E  E E E    E E E  E E E Q    E E E E E  E E E   E E E E E E Q
||-------------------|------------------|------------------|----------------|
||o------------------|------------------|------------------|----------------|
||-------------------|------------------|------------------|----------------|
||-------------------|---------------9--|------------------|----------------|
||o-----9-----11-----|-12-----11--------|-----9-----11-----|-7-----9-----5--|
||--0-0---0-0----0-0-|----0-0----0-0----|-0-0---0-0----0-0-|---0-0---0-0----|


  1.
  PM|   PM|    PM|      PM|    PM|      PM|
  E E E E E  E E E    E E E  E E E Q    E E H     Q     H    Q  Q
|------------------|------------------|--------------|---------------||
|------------------|------------------|--------------|--------------o||
|------------------|------------------|--------------|---------------||
|------------------|---------------9--|-----9--------|---------------||
|-----9-----11-----|-12-----11--------|----------12--|-11----0--0---o||
|-0-0---0-0----0-0-|----0-0----0-0----|-0-0----------|---------------||


  2.
                                                                  G5
  Gtr I
  PM|   PM|    PM|      PM|    PM|      PM|
  E E E E E  E E E    E E E  E E E Q    E E H     Q     H..       E
|------------------|------------------|--------------|---------------||
|------------------|------------------|--------------|---------------||
|------------------|------------------|--------------|---------------||
|------------------|---------------9--|-----9--------|------------5--||
|-----9-----11-----|-12-----11--------|----------12--|-11---------5--||
|-0-0---0-0----0-0-|----0-0----0-0----|-0-0----------|------------3--||
|
| Gtr II
| PM|   PM|    PM|      PM|    PM|      PM|
| E E E E E  E E E    E E E  E E E Q    E E H     Q     H..       E
|------------------|------------------|--------------|---------------||
|------------------|------------------|--------------|---------------||
|------------------|------------------|--------------|------------9--||
|------------------|---------------9--|-----9--------|---------------||
|-----9-----11-----|-12-----11--------|----------12--|-11---------7--||
|-0-0---0-0----0-0-|----0-0----0-0----|-0-0----------|---------------||


   Verse
    $
          PM---------------------------|
    +Q    E E E E E E    E   E E E E E E E
||--------------------|--------------------|
||o-------------------|--------------------|
||--------------------|--------------------|
||--(5)---------------|------------------5-|
||o-(5)---------------|------------------5-|
||--(3)---3-3-3-3-3-3-|--3---3-3-3-3-3-3-3-|
|
|   +H..            E   +H..             E
||--------------------|--------------------|
||o-------------------|--------------------|
||--(9)-------------7-|-(7)--------------9-|
||--------------------|--------------------|
||o-(7)-------------5-|-(5)--------------7-|
||--------------------|--------------------|


                                       Bm
        PM---------------------------|
  +Q    E E E E E E    E   E E E E E E E
|-------------------|---------------------|
|-------------------|------------------3--|
|-------------------|------------------4--|
|-(5)---------------|------------------4--|
|-(5)---------------|------------------2--|
|-(3)---3-3-3-3-3-3-|--3---3-3-3-3-3-3----|
|
| +H..            E   +H..             E
|-------------------|------------------2--|
|-------------------|------------------3--|
|-(9)-------------7-|-(7)--------------4--|
|-------------------|------------------4--|
|-(7)-------------5-|-(5)-----------------|
|-------------------|---------------------|


             Bsus2          Bm             Bsus2          G5
  +H..       E   +H..       E   +H..       E   +H..       E
|--------------|--------------|--------------|--------------|
|-(3)--------2-|-(2)--------3-|-(3)--------2-|-(2)----------|
|-(4)--------4-|-(4)--------4-|-(4)--------4-|-(4)----------|
|-(4)--------4-|-(4)--------4-|-(4)--------4-|-(4)--------5-|
|-(2)--------2-|-(2)--------2-|-(2)--------2-|-(2)--------5-|
|--------------|--------------|--------------|------------3-|
|
| +H..       E   +H..       E   +H..       E   +H..       E
|-(2)--------2-|-(2)--------2-|-(2)--------2-|-(2)----------|
|-(3)--------2-|-(2)--------3-|-(3)--------2-|-(2)----------|
|-(4)--------4-|-(4)--------4-|-(4)--------4-|-(4)--------9-|
|-(4)--------4-|-(4)--------4-|-(4)--------4-|-(4)----------|
|--------------|--------------|--------------|------------7-|
|--------------|--------------|--------------|--------------|


        PM---------------------------|
  +Q    E E E E E E    E   E E E E E E E
|-------------------|--------------------|
|-------------------|--------------------|
|-------------------|--------------------|
|-(5)---------------|------------------5-|
|-(5)---------------|------------------5-|
|-(3)---3-3-3-3-3-3-|--3---3-3-3-3-3-3-3-|
|
| +H..            E   +H..             E
|-------------------|--------------------|
|-------------------|--------------------|
|-(9)-------------7-|-(7)--------------9-|
|-------------------|--------------------|
|-(7)-------------5-|-(5)--------------7-|
|-------------------|--------------------|


                                       Bm
        PM---------------------------|
  +Q    E E E E E E    E   E E E E E E E
|-------------------|--------------------|
|-------------------|------------------3-|
|-------------------|------------------4-|
|-(5)---------------|------------------4-|
|-(5)---------------|------------------2-|
|-(3)---3-3-3-3-3-3-|--3---3-3-3-3-3-3---|
|
| +H..            E   +H..             E
|-------------------|------------------2-|
|-------------------|------------------3-|
|-(9)-------------7-|-(7)--------------4-|
|-------------------|------------------4-|
|-(7)-------------5-|-(5)----------------|
|-------------------|--------------------|


             Bsus2          Bm             Bsus2          A5
  +H..       E   +H..       E   +H..       E   +H..       E
|--------------|--------------|--------------|--------------|
|-(3)--------2-|-(2)--------3-|-(3)--------2-|-(2)----------|
|-(4)--------4-|-(4)--------4-|-(4)--------4-|-(4)--------2-|
|-(4)--------4-|-(4)--------4-|-(4)--------4-|-(4)--------2-|
|-(2)--------2-|-(2)--------2-|-(2)--------2-|-(2)--------0-|
|--------------|--------------|--------------|--------------|
|
| +H..       E   +H..       E   +H..       E   +H..       E
|-(2)--------2-|-(2)--------2-|-(2)--------2-|-(2)----------|
|-(3)--------2-|-(2)--------3-|-(3)--------2-|-(2)----------|
|-(4)--------4-|-(4)--------4-|-(4)--------4-|-(4)--------2-|
|-(4)--------4-|-(4)--------4-|-(4)--------4-|-(4)--------2-|
|--------------|--------------|--------------|------------0-|
|--------------|--------------|--------------|--------------|


 Pre-Chorus
                            Cadd9
  Gtrs I, II
  +W           +W           W          +W
|------------|------------|----------|--------|
|------------|------------|-3--------|-(3)----|
|-(2)--------|-(2)--------|-0--------|-(0)----|
|-(2)--------|-(2)--------|-2--------|-(2)----|
|-(0)--------|-(0)--------|-3--------|-(3)----|
|------------|------------|----------|--------|


                                              To Coda
  A5                      Bb5               F5
                                      PM|
  W          +W           Q.   E +Q   E E   E E Q  H
|----------|------------|-----------------|-------------||
|----------|------------|-----------------|-------------||
|-2--------|-(2)--------|-3----3-(3)------|-------------||
|-2--------|-(2)--------|-3----3-(3)------|-3-3-3--3----||
|-0--------|-(0)--------|-1----1-(1)------|-3-3-3--3----||
|----------|------------|-------------0-0-|-1-1-1--1----||


 Chorus
  N.C.
  PM|   PM|    PM|      PM|    PM|      PM|   PM|    PM|     PM|   PM|
  E E E E E  E E E    E E E  E E E Q    E E E E E  E E E   E E E E E E Q
|------------------|------------------|------------------|-----------------|
|------------------|------------------|------------------|-----------------|
|------------------|------------------|------------------|-----------------|
|------------------|---------------9--|------------------|-----------------|
|-----9-----11-----|-12-----11--------|-----9-----11-----|-7-----9-----5---|
|-0-0---0-0----0-0-|----0-0----0-0----|-0-0---0-0----0-0-|---0-0---0-0-----|


  PM|   PM|    PM|      PM|    PM|      PM|
  E E E E E  E E E    E E E  E E E Q    E E H     Q     H    Q  Q
|------------------|------------------|--------------|--------------|
|------------------|------------------|--------------|--------------|
|------------------|------------------|--------------|--------------|
|------------------|---------------9--|-----9--------|--------------|
|-----9-----11-----|-12-----11--------|----------12--|-11----0--0---|
|-0-0---0-0----0-0-|----0-0----0-0----|-0-0----------|--------------|


  PM|   PM|    PM|      PM|    PM|      PM|   PM|    PM|     PM|   PM|
  E E E E E  E E E    E E E  E E E Q    E E E E E  E E E   E E E E E E Q
|------------------|------------------|------------------|-----------------|
|------------------|------------------|------------------|-----------------|
|------------------|------------------|------------------|-----------------|
|------------------|---------------9--|------------------|-----------------|
|-----9-----11-----|-12-----11--------|-----9-----11-----|-7-----9-----5---|
|-0-0---0-0----0-0-|----0-0----0-0----|-0-0---0-0----0-0-|---0-0---0-0-----|


  Gtr I
  PM|   PM|    PM|      PM|    PM|
  E E E E E  E E E    E E E  E E E Q
|------------------|------------------|
|------------------|------------------|
|------------------|------------------|
|------------------|---------------9--|
|-----9-----11-----|-12-----11--------|
|-0-0---0-0----0-0-|----0-0----0-0----|
|
| Gtr II
| PM|   PM|    PM|      PM|    PM|
| E E E E E  E E E    E E E  E E E Q
|------------------|------------------|
|------------------|------------------|
|------------------|------------------|
|------------------|---------------9--|
|-----9-----11-----|-12-----11--------|
|-0-0---0-0----0-0-|----0-0----0-0----|


                1.               2.
                            G5               C#5
  PM|
  E E H     Q     H..       E      H..       E
|--------------|---------------||---------------||
|--------------|--------------o||---------------||
|--------------|---------------||------------6--||
|-----9--------|------------5--||------------6--||
|----------12--|-11---------5-o||-11---------4--||
|-0-0----------|------------3--||---------------||
|
| PM|
| E E H     Q     H..       E      H..       E
|--------------|---------------||---------------||
|--------------|--------------o||---------------||
|--------------|------------9--||------------6--||
|-----9--------|---------------||------------6--||
|----------12--|-11---------7-o||-11---------4--||
|-0-0----------|---------------||---------------||


   Bridge
         C#m                      A5                                   C#5
    Gtrs I, II
                                           PM------------------------|
    +Q   Q  E Q  E   +Q   Q  E Q  E   +Q   E E E E E E   E E E E E E E E
||-----------------|----------------|------------------|-----------------|
||o------5--5-5--5-|-(5)--5--5-5----|------------------|-----------------|
||--(6)--6--6-6--6-|-(6)--6--6-6--2-|-(2)--------------|---------------6-|
||--(6)--6--6-6--6-|-(6)--6--6-6--2-|-(2)--------------|---------------6-|
||o-(4)--4--4-4--4-|-(4)--4--4-4--0-|-(0)--0-0-0-0-0-0-|-0-0-0-0-0-0-0-4-|
||-----------------|----------------|------------------|-----------------|


                                                  1.               2.
       C#m                      E5             B5             C#5
  +Q   Q  E Q  E   +Q   Q  E Q  E   +H..       E   +H..       E     W
|----------------|----------------|--------------|---------------||------||
|------5--5-5--5-|-(5)--5--5-5----|--------------|--------------o||------||
|-(6)--6--6-6--6-|-(6)--6--6-6--9-|-(9)----------|------------6--||------||
|-(6)--6--6-6--6-|-(6)--6--6-6--9-|-(9)--------9-|-(9)--------6--||-9----||
|-(4)--4--4-4--4-|-(4)--4--4-4--7-|-(7)--------9-|-(9)--------4-o||-9----||
|----------------|----------------|------------7-|-(7)-----------||-7----||


  C#5
  Gtr I
  W                 +W                 +W               +W
|-----------------|------------------|----------------|-------------------|
|-----------------|------------------|----------------|-------------------|
|-6---------------|-(6)--------------|-(6)------------|-(6)---------------|
|-6---------------|-(6)--------------|-(6)------------|-(6)---------------|
|-4---------------|-(4)--------------|-(4)------------|-(4)---------------|
|-----------------|------------------|----------------|-------------------|
|
| Gtr II
| PM--------------------------|               PM------------------|
| E E E E E E E E    E  E E E E Q.      H     E E E E    E  E E E E Q.
|-----------------|------------------|----------------|-------------------|
|-----------------|-------------5----|----------------|-------------7-----|
|-----------------|-------------4----|--4-------------|-------------6-----|
|-----------------|------------------|--4-------------|-------------------|
|-4-4-4-4-4-4-4-4-|--4--4-4-4-4------|--------4-4-4-4-|--4--4-4-4-4-------|
|-----------------|------------------|----------------|-------------------|


                                                       C#B5
                                                           PM--------|
  +W               +W                 +W               E E E E E E E E
|----------------|------------------|----------------|------------------||
|----------------|------------------|----------------|------------------||
|-(6)------------|-(6)--------------|-(6)------------|------------------||
|-(6)------------|-(6)--------------|-(6)------------|-6S4-4-4-4-4-4-4--||
|-(4)------------|-(4)--------------|-(4)------------|-4S2-2-2-2-2-2-2--||
|----------------|------------------|----------------|------------------||
|
|          PM----------------|               PM----|       PM--------|
| +H     E E E E    E  E E E E Q.      H     E E E E   E E E E E E E E
|----------------|------------------|----------------|------------------||
|-(7)------------|-------------5----|--5-------------|------------------||
|-(6)------------|-------------4----|--4-------------|------------------||
|--------6-------|------------------|----------------|-6S4-4-4-4-4-4-4--||
|--------4-4-4-4-|--4--4-4-4-4------|--------4-4-4-4-|-4S2-2-2-2-2-2-2--||
|----------------|------------------|----------------|------------------||


   Verse
    C#
    PM------------------------------------------------------------------|
    E E E E E E E E   E E E E E E E E   E E E E E E E E   E E E E E E E E
||------------------|-----------------|-----------------|-----------------|
||o-----------------|-----------------|-----------------|-----------------|
||------------------|-----------------|-----------------|-----------------|
||------------------|-----------------|-----------------|-----------------|
||o-4-4-4-4-4-4-4-4-|-4-4-4-4-4-4-4-4-|-4-4-4-4-4-4-4-4-|-4-4-4-4-4-4-4-4-|
||------------------|-----------------|-----------------|-----------------|
|
|   PM--------------------------|       PM--------------------------|
|   E E E E E E E E   E E E E E E Q     E E E E E E E E   E E E E E E Q
||------------------|-----------------|-----------------|-----------------|
||o-----------------|-----------------|-----------------|-------------5---|
||------------------|-------------6---|-----------------|-------------4---|
||------6-----8-----|-9-----8---------|-----6-----8-----|-9-----8---------|
||o-4-4---4-4---4-4-|---4-4---4-4-----|-4-4---4-4---4-4-|---4-4---4-4-----|
||------------------|-----------------|-----------------|-----------------|


                                                                      E5
  PM----------------------------------------------------------------|
  E E E E E E E E   E E E E E E E E   E E E E E E E E   E E E E E E E E
|-----------------|-----------------|-----------------|------------------|
|-----------------|-----------------|-----------------|------------------|
|-----------------|-----------------|-----------------|---------------9--|
|-----------------|-----------------|-----------------|---------------9--|
|-4-4-4-4-4-4-4-4-|-4-4-4-4-4-4-4-4-|-4-4-4-4-4-4-4-4-|-4-4-4-4-4-4-4-7--|
|-----------------|-----------------|-----------------|------------------|
|
| PM------------|
| E E E E E E E E   E E E E E E Q     E E E E E E E E   E E E E E E E E
|-----------------|-----------------|-----------------|------------------|
|-----------------|-----------------|-----------------|------------------|
|-----------------|-------------6---|-----------------|-------4-------9--|
|-----6-----8-----|-9-----8---------|-----6-----8-----|-6-----4-----6-9--|
|-4-4---4-4---4-4-|---4-4---4-4-----|-4-4---4-4---4-4-|---4-4---4-4---7--|
|-----------------|-----------------|-----------------|------------------|


             B5             E5             B5
  Gtrs I, II
  +H..       E   +H..       E   +H..       E   +W
|--------------|--------------|--------------|--------|
|--------------|--------------|--------------|--------|
|-(9)----------|------------9-|-(9)----------|--------|
|-(9)--------9-|-(9)--------9-|-(9)--------9-|-(9)----|
|-(7)--------9-|-(9)--------7-|-(7)--------9-|-(9)----|
|------------7-|-(7)----------|------------7-|-(7)----|


  1.
  C#
  Gtr I
  PM-------------------------------------------------------------------|
  E E E E E E E E   E E E E E E  E E   E E E E E E E E   E E E E E E E E
|-----------------|------------------|-----------------|-------------------||
|-----------------|------------------|-----------------|------------------o||
|-----------------|------------------|-----------------|-------------------||
|-----------------|------------------|-----------------|-------------------||
|-4-4-4-4-4-4-4-4-|-4-4-4-4-4-4--4-4-|-4-4-4-4-4-4-4-4-|-4-4-4-4-4-4-4-4--o||
|-----------------|------------------|-----------------|-------------------||
|
| Gtr II
| PM------------------------|                  PM----------------------|
| E E E E E E E E   E E E E E Q.       H       E E E E   E E E E E E E E
|-----------------|------------------|-----------------|-------------------||
|-----------------|-----------5------|-5---------------|------------------o||
|-----------------|-----------4------|-4---------------|-------------------||
|-----------------|------------------|-----------------|-------------------||
|-4-4-4-4-4-4-4-4-|-4-4-4-4-4--------|---------4-4-4-4-|-4-4-4-4-4-4-4-4--o||
|-----------------|------------------|-----------------|-------------------||


  2.
                                                                    E5B5
  PM--------------------------------------------------------------|
  E E E E E E E E   E E E E E E E E   E E E E E E E E   E E E E E E E E
|-----------------|-----------------|-----------------|------------------|
|-----------------|-----------------|-----------------|------------------|
|-----------------|-----------------|-----------------|-------------9----|
|-----------------|-----------------|-----------------|-------------9-9--|
|-4-4-4-4-4-4-4-4-|-4-4-4-4-4-4-4-4-|-4-4-4-4-4-4-4-4-|-4-4-4-4-4-4-7-9--|
|-----------------|-----------------|-----------------|---------------7--|
|
| PM--------------------------|       PM--------------------------|
| E E E E E E E E   E E E E E E Q     E E E E E E E E   E E E E E E E E
|-----------------|-----------------|-----------------|------------------|
|-----------------|-----------------|-----------------|------------------|
|-----------------|-------------6---|-----------------|------------------|
|-----6-----8-----|-9-----8---------|-----6-----8-----|-6-----4-------9--|
|-4-4---4-4---4-4-|---4-4---4-4-----|-4-4---4-4---4-4-|---4-4---4-4-7-9--|
|-----------------|-----------------|-----------------|---------------7--|


  Gtrs I, II
  +W           +W           W          +W
|------------|------------|----------|--------|
|------------|------------|----------|--------|
|------------|------------|----------|--------|
|-(9)--------|-(9)--------|-9--------|-(9)----|
|-(9)--------|-(9)--------|-9--------|-(9)----|
|-(7)--------|-(7)--------|-7--------|-(7)----|


  A5                             E5   F#5
  Q  E E +E  E Q    +W           Q  E E +E  E Q    +H..       E
|-----------------|------------|-----------------|---------------||
|-----------------|------------|-----------------|---------------||
|-----------------|------------|-----------------|---------------||
|-7----7-(7)---7--|-(7)--------|-2----4-(4)---4--|-(4)-----------||
|-7----7-(7)---7--|-(7)--------|-2----4-(4)---4--|-(4)-----------||
|-5----5-(5)---5--|-(5)--------|-0----2-(2)---2--|-(2)-----------||


    Bm                            G5
    Gtr II
    E E E E Q  E E   E E Q  E E E E   +W                 +W
||-----------------|----------------|------------------|-------------------|
||o-3-3-3-3----3-3-|-3-3----3-3-3---|------------------|-------------------|
||--4-4-4-4----4-4-|-4-4----4-4-4---|------------------|-------------------|
||--4-4-4-4----4-4-|-4-4----4-4-4-5-|-(5)--------------|-(5)---------------|
||o-2-2-2-2----2-2-|-2-2----2-2-2-5-|-(5)--------------|-(5)---------------|
||-----------------|--------------3-|-(3)--------------|-(3)---------------|
|
|   Gtr I
|                                          PM----------------------------|
|   E E E E Q  E E   E E Q  E E E E   +Q   E E E E E E    E  E E E E E E E
||-----------------|----------------|------------------|-------------------|
||o-3-3-3-3----3-3-|-3-3----3-3-3---|------------------|-------------------|
||--4-4-4-4----4-4-|-4-4----4-4-4---|------------------|-------------------|
||--4-4-4-4----4-4-|-4-4----4-4-4-5-|-(5)--------------|-------------------|
||o-2-2-2-2----2-2-|-2-2----2-2-2-5-|-(5)--------------|-------------------|
||-----------------|--------------3-|-(3)--3-3-3-3-3-3-|--3--3-3-3-3-3-3-3-|


  Bm                            D5
  E E E E Q  E E   E E Q  E E E E
|----------------|----------------|
|-3-3-3-3----3-3-|-3-3----3-3-3---|
|-4-4-4-4----4-4-|-4-4----4-4-4-7-|
|-4-4-4-4----4-4-|-4-4----4-4-4-7-|
|-2-2-2-2----2-2-|-2-2----2-2-2-5-|
|----------------|----------------|
|
| E E E E Q  E E   E E Q  E E E E
|----------------|----------------|
|-3-3-3-3----3-3-|-3-3----3-3-3---|
|-4-4-4-4----4-4-|-4-4----4-4-4-7-|
|-4-4-4-4----4-4-|-4-4----4-4-4-7-|
|-2-2-2-2----2-2-|-2-2----2-2-2-5-|
|----------------|----------------|


                1.             2.
             A5
  +H..       E   +W             +H      H
|--------------|-------------||---------------||
|--------------|------------o||---------------||
|-(7)----------|-------------||---------------||
|-(7)--------7-|-(7)---------||-(7)-----------||
|-(5)--------7-|-(7)--------o||-(7)-----------||
|------------5-|-(5)---------||-(5)----15\----||
|
| +H..       E   +W             +W
|--------------|-------------||---------------||
|--------------|------------o||---------------||
|-(7)----------|-------------||---------------||
|-(7)--------7-|-(7)---------||-(7)-----------||
|-(5)--------7-|-(7)--------o||-(7)-----------||
|------------5-|-(5)---------||-(5)-----------||


 Solo - John Marshall
  B5 Bm        B5         Bm        G5
  Q  E E E E E  E   +E  E E E Q   E E
|-----------------|-------------------|
|-----------------|-------------------|
|-----------------|-------------------|
|----4------------|-------------------|
|-----------------|-------5-7s9---7-5-|
|-2----2-2-2---/7-|-(7)-7-------------|
|
| Q  Q   E Q    E   +Q    Q   E Q   E
|-----------------|-------------------|
|----3---3-3------|-------3---3-3-----|
|-4--4---4-4----4-|-(4)---4---4-4-----|
|-4--4---4-4----4-|-(4)---4---4-4---5-|
|-2--2---2-2----2-|-(2)---2---2-2---5-|
|-----------------|-----------------3-|


                                         B5
           PM----|           ~~~~~~~~
                     |---3---|
  +Q   Q   E E E E   Q   Q   Q   +H
|------------------|------------------------|
|------------------|-7h==8---7---(7)--------|
|--------------7-9-|------------------------|
|----------7-9-----|------------------------|
|-(5)--------------|------------------------|
|------------------|------------------------|
|
|      PM------------------------------|
| +Q   E E E E E E   E E   E   E  E  E E E
|------------------|------------------------|
|------------------|------------------------|
|------------------|---------------------4--|
|-(5)--------------|---------------------4--|
|-(5)--------------|---------------------2--|
|-(3)--3-3-3-3-3-3-|-3-3---3---3--3--3-3----|


          Bm             B5        Bm       D5
                                       ~~
   |-3--|
   E  E E E E Q      +E  E    E  E E E Q.   E
|--------------------------|------------------|
|--7h=8p7---7--------------|------------------|
|---------9---9b11r==(9)-7-|--9--7-6-7-6h===7-|
|--------------------------|------------------|
|--------------------------|------------------|
|--------------------------|------------------|
|
| Gtr III
|  W                          W
|--------------------------|------------------|
|--------------------------|------------------|
|--------------------------|------------------|
|--------------------------|------------------|
|--------------------------|------------------|
|--------------------------|------------------|
|
| Gtr I
| +Q      Q   E    Q     E   +Q    Q   E Q  E
|--------------------------|------------------|
|---------3---3----3-------|-------3---3-3----|
|-(4)-----4---4----4-----4-|-(4)---4---4-4--7-|
|-(4)-----4---4----4-----4-|-(4)---4---4-4--7-|
|-(2)-----2---2----2-----2-|-(2)---2---2-2--5-|
|--------------------------|------------------|


                   A5                  B5
   E   E E E E E E E    E   Q.   +H
|--------------------|-------------------|
|--------------------|-------------------|
|--------6-----------|-------------------|
|--7---9---9-7-5-4---|-------------------|
|------------------7-|--5---4----(4)-----|
|--------------------|-------------------|
|
|  E   E E E E E E E    E   Q.   +H
|--------------------|-------------------|
|--------------------|-------------------|
|--6---7-9-7-6-------|-------------------|
|--------------9-7-5-|--4----------------|
|--------------------|------7----(7)-----|
|--------------------|-------------------|
|
| +H..             E   +H..            E
|--------------------|-------------------|
|--------------------|-------------------|
|-(7)----------------|-----------------4-|
|-(7)--------------7-|-(7)-------------4-|
|-(5)--------------7-|-(7)-------------2-|
|------------------5-|-(5)---------------|


  B5      Bm        B5           Bm                 G5
    |---3---|            |--3--|
    Q   Q   Q  H         E   E E  E E  E.    S  +E   E
|-----------9-10------|--9h=10p9----9------------------|
|------12-------------|----------12---12---------------|
|-/11-----------------|---------------------11-(11)----|
|---------------------|-----------------------------12-|
|---------------------|--------------------------------|
|---------------------|--------------------------------|
|
| Gtr I
|  +Q     Q    E Q  E   +Q        Q    E  Q          E
|---------------------|--------------------------------|
|---------3----3-3----|-----------3----3--3------------|
|--(4)----4----4-4--4-|-(4)-------4----4--4------------|
|--(4)----4----4-4--4-|-(4)-------4----4--4----------5-|
|--(2)----2----2-2--2-|-(2)-------2----2--2----------5-|
|---------------------|------------------------------3-|


                                                 B5
                            ~~~~~~~~~
   E. S +E   E  E.   S +E   E    +W
|-----------------------------|--------------------|
|-----------------------------|--------------------|
|-----------------------------|--------------------|
|-11--9-(9)-------------------|--------------------|
|-----------12-10----9-(9)-10-|-(10)---------------|
|-----------------------------|--------------------|
|
|        PM------------------------------------|
| +Q     E   E  E  E    E   E     E  E E E E E E E
|-----------------------------|--------------------|
|-----------------------------|--------------------|
|-----------------------------|------------------4-|
|-(5)-------------------------|------------------4-|
|-(5)-------------------------|------------------2-|
|-(3)----3---3--3--3----3---3-|---3--3-3-3-3-3-3---|


            Bm                     B5               Bm                        D5
   |--3---| |--3--| |---3---| |---3---|    |--3---|  |--3--|  |---3---|  |---3---|
   E   E  E E  E  E E  E    E E  E    E    E   E  E  E  E  E  E  E    E  E  E    E
|---------------------------------------|------------------------------------------|
|---------------------------------------|------------------------------------------|
|---------------------------------------|-----------11------------------11-14s==16-|
|-------------------9-------------------|-11h=12h14----14p12p11h12h==14------------|
|-----------9h10h12---12p==10-9h11h==13-|------------------------------------------|
|--9h=10h12-----------------------------|------------------------------------------|
|
| +Q        Q       E    Q         E      +Q         Q        E    Q          E
|---------------------------------------|------------------------------------------|
|-----------3-------3----3--------------|------------3--------3----3---------------|
|-(4)-------4-------4----4---------4----|-(4)--------4--------4----4----------7----|
|-(4)-------4-------4----4---------4----|-(4)--------4--------4----4----------7----|
|-(2)-------2-------2----2---------2----|-(2)--------2--------2----2----------5----|
|---------------------------------------|------------------------------------------|


                                 A5                B5
   |--3---|                 |---3---|
   E   E  E  E  S  S  E  E  E  E    E    W
|-----------14-------------14s16h==17-|-19--------------|
|-14h=15h17----17p14h15-17------------|-----------------|
|-------------------------------------|-----------------|
|-------------------------------------|-----------------|
|-------------------------------------|-----------------|
|-------------------------------------|-----------------|
|
|                                                  Gtr III
| +H..                           E      +H..       E
|-------------------------------------|-----------------|
|-------------------------------------|-----------------|
|-(7)---------------------------------|------------4----|
|-(7)----------------------------7----|-(7)--------4----|
|-(5)----------------------------7----|-(7)--------2----|
|--------------------------------5----|-(5)-------------|


 Solo - Craig Wells
           Bm                B5            Bm                 G5
   +W                               +W
|-(19)---------------------------|-(19)---------------------------|
|--------------------------------|--------------------------------|
|--------------------------------|--------------------------------|
|--------------------------------|--------------------------------|
|--------------------------------|--------------------------------|
|--------------------------------|--------------------------------|
|
| Gtr I
|          |-3--|        |--3--|           |-3--|        |--3---|
|   E    E E  E E Q      E E   E     Q     E  E E Q      E  E   E
|----------7-------------7-------|---------7-------------7--------|
|--------7---10p7----------------|-----------10p7--------7-10p==7-|
|---9b11----------9b11-----9p==7-|---9b11---------9b11------------|
|--------------------------------|--------------------------------|
|--------------------------------|--------------------------------|
|--------------------------------|--------------------------------|
|
| Gtr III
|  +Q      Q      E    Q     E      +Q     Q      E    Q      E
|--------------------------------|--------------------------------|
|----------3------3----3---------|---------3------3----3----------|
|--(4)-----4------4----4-----4---|--(4)----4------4----4----------|
|--(4)-----4------4----4-----4---|--(4)----4------4----4------5---|
|--(2)-----2------2----2-----2---|--(2)----2------2----2------5---|
|--------------------------------|----------------------------3---|


                                                                B5
   W                                W
|---------------------------------|----------------------------------|
|---------------------------------|----------------------------------|
|---------------------------------|----------------------------------|
|---------------------------------|----------------------------------|
|---------------------------------|----------------------------------|
|---------------------------------|----------------------------------|
|
|        |--3---|        |--3---|          |--3---|        |--3---|
|  Q     E  E   E Q      E  E   E   Q      E  E   E Q      E  E   E
|--------7---------------7--------|--------7---------------7---------|
|----------10p==7----------10p==7-|----------10p==7----------10p==7--|
|--9b11-----------9b11------------|-9b11------------9b11-------------|
|---------------------------------|----------------------------------|
|---------------------------------|----------------------------------|
|---------------------------------|----------------------------------|
|
|        PM------------------------------------------------|
| +Q     E    E   E    E E    E     E    E E    E   E    E E    E
|---------------------------------|----------------------------------|
|---------------------------------|----------------------------------|
|---------------------------------|-----------------------------4----|
|-(5)-----------------------------|-----------------------------4----|
|-(5)-----------------------------|-----------------------------2----|
|-(3)----3----3---3----3-3----3---|-3----3-3----3---3----3-3---------|


          Bm         B5           Bm        D5
  Gtr I
   Q       H       E  +E     E  E E E E E E E
|----------7--------------|-------------------|
|-10b12===10------10r(10)-|--7----------------|
|-------------------------|-----9-7---9-------|
|-------------------------|---------9---7-9-7-|
|-------------------------|-------------------|
|-------------------------|-------------------|
|
| Gtr III
| +Q       Q  E Q      E    +Q    Q   E Q   E
|-------------------------|-------------------|
|----------3--3-3---------|-------3---3-3-----|
|-(4)------4--4-4------4--|-(4)---4---4-4---7-|
|-(4)------4--4-4------4--|-(4)---4---4-4---7-|
|-(2)------2--2-2------2--|-(2)---2---2-2---5-|
|-------------------------|-------------------|


                A5                 B5
         ~              ~~~~~~~~~
   E   E H    E E    E  Q.   +H
|-----------------|-------------------|
|-----------------|-------------------|
|------7-9----7-9-|--7s=6----(6)------|
|--9--------------|-------------------|
|-----------------|-------------------|
|-----------------|-------------------|
|
| +H..          E   +H..           E
|-----------------|-------------------|
|-----------------|-------------------|
|-(7)-------------|----------------4--|
|-(7)-----------7-|-(7)------------4--|
|-(5)-----------7-|-(7)------------2--|
|---------------5-|-(5)---------------|


        Bm        B5        Bm        G5
                                    PM---
   E  E E E E E E E    E  E E E E E E E
|-------------------|-------------------|
|-------------------|-------------------|
|--6--7-9-7-6---7-6-|-------6-----------|
|-------------9-----|--9--7---9-7-6-7-9-|
|-------------------|-------------------|
|-------------------|-------------------|
|
| +Q    Q   E Q   E   +Q    Q   E Q   E
|-------------------|-------------------|
|-------3---3-3-----|-------3---3-3-----|
|-(4)---4---4-4---4-|-(4)---4---4-4-----|
|-(4)---4---4-4---4-|-(4)---4---4-4---5-|
|-(2)---2---2-2---2-|-(2)---2---2-2---5-|
|-------------------|-----------------3-|


                                                              B5
 -----------------------------------------|             ~
   |-------7--------|
   E  E E E   E E   E S S S S S S S S   S S S S S S S S H
|-------------------------------------|---------------------------|
|-------------------------------------|---------------------------|
|--6--7-9-7---6-------------6-7-9-7-6-|-----------6-7-9-7---------|
|---------------9---7-6-7-9-----------|-9-7-6-7-9-----------------|
|-------------------------------------|---------------------------|
|-------------------------------------|---------------------------|
|
|           PM----------------------------------------------|
| +Q        E     E   E   E   E   E     E   E   E   E   E E E E
|-------------------------------------|---------------------------|
|-------------------------------------|---------------------------|
|-------------------------------------|-----------------------4---|
|-(5)---------------------------------|-----------------------4---|
|-(5)---------------------------------|-----------------------2---|
|-(3)-------3-----3---3---3---3---3---|-3---3---3---3---3-3-3-----|


       Bm              B5         Bm                           D5
   ~~~
                                           |---3---|
  +Q     Q   Q    Q         Q      +E   E  E  E    E      +E    E
|----------------12b14---|-12b14r=(12)-10-----------------------------|
|------/12--10-----------|----------------12p10---12b15==(12)r-12b15==|
|-(7)--------------------|--------------------------------------------|
|------------------------|--------------------------------------------|
|------------------------|--------------------------------------------|
|------------------------|--------------------------------------------|
|
| +Q     Q   E Q       E   +Q       Q      E    Q               E
|------------------------|--------------------------------------------|
|--------3---3-3---------|----------3------3----3---------------------|
|-(4)----4---4-4-------4-|-(4)------4------4----4---------------7-----|
|-(4)----4---4-4-------4-|-(4)------4------4----4---------------7-----|
|-(2)----2---2-2-------2-|-(2)------2------2----2---------------5-----|
|------------------------|--------------------------------------------|


                     A5
                      ~~~~~~~~~
   +H      +E   E  E  E    +W
|-----------------------|---------|
|-(12)r===(12)-10-12-12-|-(12)----|
|-----------------------|---------|
|-----------------------|---------|
|-----------------------|---------|
|-----------------------|---------|
|
|  +H..               E    +W
|-----------------------|---------|
|-----------------------|---------|
|--(7)------------------|---------|
|--(7)----------------7-|--(7)----|
|--(5)----------------7-|--(7)----|
|---------------------5-|--(5)----|


  B5
   |---3----|   |--3--| |--3--|  |--3--|    |--3---|       |-3-|
   E   E    E   E  E  E E  E  E  E  E  E    E   E  E      +Q   E  Q     E  E
|-12-(10)-(12)-12-10-12-9s10-------------|---------------------x--------7--------|
|-----10---12----------------12-12p10h12-|-10-----10b12==(10)r---10b12----10b12==|
|----------------------------------------|-----11--------------------------------|
|----------------------------------------|---------------------------------------|
|----------------------------------------|---------------------------------------|
|----------------------------------------|---------------------------------------|
|
|  W                                       +W
|----------------------------------------|---------------------------------------|
|----------------------------------------|---------------------------------------|
|--4-------------------------------------|-(4)-----------------------------------|
|--4-------------------------------------|-(4)-----------------------------------|
|--2-------------------------------------|-(2)-----------------------------------|
|----------------------------------------|---------------------------------------|


   +E   E   E     E E E  E  E     E  E E E  Q.      E
|-------7---------------------|------------------------||
|-(10)r---[10]b12-x-----------|------------------------||
|-------------------7-9-[7]---|-[10]p7---7-[9]b11------||
|---------------------------9-|--------9---------------||
|-----------------------------|------------------------||
|-----------------------------|------------------------||
|
|  +W                            +W
|-----------------------------|------------------------||
|-----------------------------|------------------------||
|--(4)------------------------|--(4)-------------------||
|--(4)------------------------|--(4)-------------------||
|--(2)------------------------|--(2)-------------------||
|-----------------------------|------------------------||


  N.C.
   ~~~~~~~~~~~~~~~~~~~~~~~~
   W                   +W                  W                  W
|--------------------|-------------------|------------------|-----------------|
|--------------------|-------------------|------------------|-----------------|
|-[7]----------------|-(7)---------------|------------------|-----------------|
|--------------------|-------------------|------------------|-----------------|
|--------------------|-------------------|------------------|-----------------|
|--------------------|-------------------|------------------|-----------------|
|
|  PM-|   PM|    PM|       PM|    PM|      PM|   PM|    PM|     PM|   PM|
|  E  E E E E  E E E    E  E E  E E E Q    E E E E E  E E E   E E E E E E Q
|--------------------|-------------------|------------------|-----------------|
|--------------------|-------------------|------------------|-----------------|
|--------------------|-------------------|------------------|-----------------|
|--------------------|----------------9--|------------------|-----------------|
|-------9-----11-----|-12------11--------|-----9-----11-----|-7-----9-----5---|
|--0--0---0-0----0-0-|-----0-0----0-0----|-0-0---0-0----0-0-|---0-0---0-0-----|


  W                   W                 Q   H     Q     H    Q  Q
|------------------|------------------|--------------|--------------|
|------------------|------------------|--------------|--------------|
|------------------|------------------|-----9--------|--------------|
|------------------|------------------|----------12--|-11-----------|
|------------------|------------------|--------------|-------0--0---|
|------------------|------------------|--------------|--------------|
|
| PM|   PM|    PM|      PM|    PM|      PM|
| E E E E E  E E E    E E E  E E E Q    E E H     Q     H    Q  Q
|------------------|------------------|--------------|--------------|
|------------------|------------------|--------------|--------------|
|------------------|------------------|--------------|--------------|
|------------------|---------------9--|-----9--------|--------------|
|-----9-----11-----|-12-----11--------|----------12--|-11----0--0---|
|-0-0---0-0----0-0-|----0-0----0-0----|-0-0----------|--------------|


  Gtrs I, II
  PM|   PM|    PM|      PM|    PM|      PM|   PM|    PM|     PM|   PM|
  E E E E E  E E E    E E E  E E E Q    E E E E E  E E E   E E E E E E Q
|------------------|------------------|------------------|-----------------|
|------------------|------------------|------------------|-----------------|
|------------------|------------------|------------------|-----------------|
|------------------|---------------9--|------------------|-----------------|
|-----9-----11-----|-12-----11--------|-----9-----11-----|-7-----9-----5---|
|-0-0---0-0----0-0-|----0-0----0-0----|-0-0---0-0----0-0-|---0-0---0-0-----|


                                                        D.S. al Coda
                                                                  G5
  Gtr I
  PM|   PM|    PM|      PM|    PM|      PM|
  E E E E E  E E E    E E E  E E E Q    E E H     Q     H..       E
|------------------|------------------|--------------|---------------||
|------------------|------------------|--------------|---------------||
|------------------|------------------|--------------|---------------||
|------------------|---------------9--|-----9--------|------------5--||
|-----9-----11-----|-12-----11--------|----------12--|-11---------5--||
|-0-0---0-0----0-0-|----0-0----0-0----|-0-0----------|------------3--||
|
| Gtr II
| PM|   PM|    PM|      PM|    PM|      PM|
| E E E E E  E E E    E E E  E E E Q    E E H     Q     H..       E
|------------------|------------------|--------------|---------------||
|------------------|------------------|--------------|---------------||
|------------------|------------------|--------------|------------9--||
|------------------|---------------9--|-----9--------|---------------||
|-----9-----11-----|-12-----11--------|----------12--|-11---------7--||
|-0-0---0-0----0-0-|----0-0----0-0----|-0-0----------|---------------||


   Out-Chorus
    &
    N.C.
    Gtrs I, II
    PM|   PM|    PM|      PM|    PM|      PM|   PM|    PM|     PM|   PM|
    E E E E E  E E E    E E E  E E E Q    E E E E E  E E E   E E E E E E Q
||-------------------|------------------|------------------|----------------|
||o------------------|------------------|------------------|----------------|
||-------------------|------------------|------------------|----------------|
||-------------------|---------------9--|------------------|----------------|
||o-----9-----11-----|-12-----11--------|-----9-----11-----|-7-----9-----5--|
||--0-0---0-0----0-0-|----0-0----0-0----|-0-0---0-0----0-0-|---0-0---0-0----|


                                       1.,2.,3.
  PM|   PM|    PM|      PM|    PM|      PM|
  E E E E E  E E E    E E E  E E E Q    E E H     Q     H    Q  Q    3x
|------------------|------------------|--------------|---------------||
|------------------|------------------|--------------|--------------o||
|------------------|------------------|--------------|---------------||
|------------------|---------------9--|-----9--------|---------------||
|-----9-----11-----|-12-----11--------|----------12--|-11----0--0---o||
|-0-0---0-0----0-0-|----0-0----0-0----|-0-0----------|---------------||


  4.
                          A5
 5/4              4/4
  PM|
  E E H     H       H     H      +W           +W
|----------------|-------------|------------|--------|
|----------------|-------------|------------|--------|
|----------------|--------2----|-(2)--------|-(2)----|
|-----9----------|--------2----|-(2)--------|-(2)----|
|----------12----|-11\----0----|-(0)--------|-(0)----|
|-0-0------------|-------------|------------|--------|


  Q=170
  E5         D5         E5
                                    TP
  W          W          W           W
|----------|----------|----------|--------|
|----------|----------|----------|--------|
|-9--------|-7--------|-9--------|-(9)----|
|-9--------|-7--------|-9--------|-(9)----|
|-7--------|-5--------|-7--------|-(7)----|
|-0--------|----------|-0--------|--0-----|


   TP
  +W           W          +W           H    +E   E Q
|------------|----------|------------|-----------------*|
|------------|----------|------------|-----------------*|
|-(9)--------|-9--------|-(9)--------|-9----(9)\-------*|
|-(9)--------|-9--------|-(9)--------|-9----(9)\-------*|
|-(7)--------|-7--------|-(7)--------|-7----(7)\-------*|
|-(0)--------|-0--------|-(0)--------|-----------------*|



Duration Legend
---------------
W - whole; H - half; Q - quarter; E - 8th; S - 16th; T - 32nd; X - 64th; a - acciaccatura
+ - note tied to previous; . - note dotted; .. - note double dotted
Uncapitalized letters represent notes that are staccato (1/2 duration)
Irregular groupings are notated above the duration line
Duration letters will always appear directly above the note/fret number it represents the
duration for.  Duration letters with no fret number below them represent rests.  Multi-
bar rests are notated in the form Wxn, where n is the number of bars to rest for.  Low
melody durations appear below the staff

Tablature Legend
----------------
 h   - hammer-on
 p   - pull-off
 b   - bend
 pb  - pre-bend
 r   - bend release (if no number after the r, then release immediately)
 /\  - slide into or out of (from/to "nowhere")
 s   - legato slide
 S   - shift slide
 - natural harmonic
[n]  - artificial harmonic
n(n) - tapped harmonic
 ~   - vibrato
 tr  - trill
 T   - tap
 TP  - trem. picking
 PM  - palm muting
\n/  - tremolo bar dip; n = amount to dip
 \n  - tremolo bar down
 n/  - tremolo bar up
/n\  - tremolo bar inverted dip
 =   - hold bend; also acts as connecting device for hammers/pulls
 <> - volume swell (louder/softer)
 x   - on rhythm slash represents muted slash
 o   - on rhythm slash represents single note slash

Misc Legend
-----------
 |  - bar
||  - double bar
||o - repeat start
o|| - repeat end
*|  - double bar (ending)
 :  - bar (freetime)
 $  - Segno
 &  - Coda
Tempo markers -  = BPM(8/16=s8/s16), where s8 = swing 8ths, s16 = swing 16ths

Tap to rate this tab
# A B C D E F G H I J K L M N O P Q R S T U V W X Y Z