Song name
# A B C D E F G H I J K L M N O P Q R S T U V W X Y Z

Metal Church - Watch The Children Pray tab

			     watch the children pray - solo - Metal Church
-------------------------------------------------------------------------------
Tabbed by:eagle thunder
Email:

Tuning:standard
i may be off by a note or two here or there but i am the FIRST to post solo tabs!!
check out my other tabs for oi
e|---------------------------------------------------------------------|
B|---------------------------------------------15121512151215----------|
G|-7/9xx9/11x11/12x12/14xx14/16x16/14xx-14^(16)--------------(16)1412--|
D|-x/xxxx/xxxx/xxxxxx/xxxxxx/xxxxx/xxxx--------------------------------|
A|-5/7xx7/9xx9/10xx10/12xx12/14x14/12xx--------------------------------|
E|---------------------------------------------------------------------|

e|-----------------------------------------------------------------------------|
B|-----------------------------------------------------------------------------|
G|--11 12~~11 12 14~~~--11 12 12~~11------12 14^(16)12-------------------------|
D|14------------------14------------14~~14-------------14-12-1414-12-1414~~----|
A|-----------------------------------------------------------------------------|
E|-----------------------------------------------------------------------------|

e|----------------------------------19p15--19p15-----19p15--19p15--19p15-----|
B|------------------------17~~17~~17-----17-----1715~-----17-----17-----17---|
G|-----11h12-9h11-7--7-------------------------------------------------------|
D|12h14-------------9-9~~----------------------------------------------------|
A|---------------------------------------------------------------------------|
E|---------------------------------------------------------------------------|

e|--1415171514--14/19~~~-----------------------------------------------------|
B|17----------17-------------------------------------------------------------|
G|---------------------------------------------------------------------------|
D|---------------------------------------------------------------------------|
A|---------------------------------------------------------------------------|
E|---------------------------------------------------------------------------|
Tap to rate this tab
# A B C D E F G H I J K L M N O P Q R S T U V W X Y Z