Song name
# A B C D E F G H I J K L M N O P Q R S T U V W X Y Z

Metal Church - Hitman tab

Guitars tuned down 1/2 step

Intro

Eb-----------------------|
Bb-----------------------|
Gb-----------------------|
Db-10-------9------------|
Ab-8--------7--------4---|
Eb-------------------2---|
Let notes ring


Eb----------------------------------------|
Bb----------------------------------------|
Gb-12------12------12----12---------------|
Db-9-------9-------9-----9--------5-------|
Ab-7-7-7-7-7-7-7-7-7-7-7-7-7-7-7--5-------|
Eb--------------------------------3-------|
     . . .   . . .   . .   . . .

Eb----------------------------------------|
Bb----------------------------------------|
Gb-12------12------12----12-------7-------|
Db-9-------9-------9-----9--------7-------|
Ab-7-7-7-7-7-7-7-7-7-7-7-7-7-7-7--5-------|
Eb----------------------------------------|
     . . .   . . .   . .   . . .


Eb----------------------------------------|
Bb----------------------------------------|
Gb-12------12------12----12---------------|
Db-9-------9-------9-----9--------5-------|
Ab-7-7-7-7-7-7-7-7-7-7-7-7-7-7-7--5-------|
Eb--------------------------------3-------|
     . . .   . . .   . .   . . .

Eb----------------------------------------|
Bb----------------------------------------|
Gb-12------12------12----12-------7-------|
Db-9-------9-------9-----9--------7-------|
Ab-7-7-7-7-7-7-7-7-7-7-7-7-7-7-7--5-------|
Eb----------------------------------------|
     . . .   . . .   . .   . . .


Verse
Eb----------------------------------------|
Bb----------------------------------------|
Gb-12------12------12----12---------------|
Db-9-------9-------9-----9--------5-4-----|
Ab-7-7-7-7-7-7-7-7-7-7-7-7-7-7-7--5-4-----|
Eb--------------------------------3-2-----|
     . . .   . . .   . .   . . .
\"Your woman\'s unfaithful she\'s got a backdoor man\"

Eb----------------------------------------|
Bb----------------------------------------|
Gb-12------12------12----12-------7-8-----|
Db-9-------9-------9-----9--------7-8-----|
Ab-7-7-7-7-7-7-7-7-7-7-7-7-7-7-7--5-6-----|
Eb----------------------------------------|
     . . .   . . .   . .   . . .
\"You\'ve seen the signs and you understand\"


Eb----------------------------------------|
Bb----------------------------------------|
Gb-12------12------12----12---------------|
Db-9-------9-------9-----9--------5-4-----|
Ab-7-7-7-7-7-7-7-7-7-7-7-7-7-7-7--5-4-----|
Eb--------------------------------3-2-----|
     . . .   . . .   . .   . . .
\"Don\'t get excited now, I know just what to do\"


Eb----------------------------------------|
Bb----------------------------------------|
Gb-12------12------12----12-------7-8-----|
Db-9-------9-------9-----9--------7-8-----|
Ab-7-7-7-7-7-7-7-7-7-7-7-7-7-7-7--5-6-----|
Eb----------------------------------------|
     . . .   . . .   . .   . . .
\"I got the guns, ha-ha, I got the tools\"


Pre Chorus

Eb----------------------------------------------|
Bb----------------------------------------------|
Gb-2-2-2----------------------------------------|
Db-2-2-2-----Don\'t Know What-------------------|
Ab-0-0-0-----Goes After This--------------------|
Eb----------------------------------------------|

             \"Yes I\'m the one they call the man\"


Eb--------------------------------------------|
Bb--------------------------------------------|
Gb--------------------------------------------|
Db-3-3-3-----Or this--------------------------|
Ab-3-3-3--------------------------------------|
Eb-1-1-1--------------------------------------|

	     \"Any time at all, I\'m just a hitman\"

Eb----------------------------------------------|
Bb----------------------------------------------|
Gb-2-2-2----------------------------------------|
Db-2-2-2-----Don\'t Know What-------------------|
Ab-0-0-0-----Goes After This--------------------|
Eb----------------------------------------------|
	     \"I\'ll get the job done\"

Eb--------------------------------------------|
Bb--------------------------------------------|
Gb-----------4-4-4----------------------------|
Db-3-3-3-----4-4-4----------------------------|
Ab-3-3-3-----2-2-2----------------------------|
Eb-1-1-1--------------------------------------|
   \"No one will ever know...\"


Chorus


Eb-----------------------------------------------|
Bb-----------------------------------------------|
Gb-----------------------------------------------|
Db-8/10-10-10-8/10-10-10-8\\6-6-6-6/8-8-8-8-6----|
Ab-6/8--8--8--6/8--8--8--6\\4-4-4-4/6-6-6-6-4----|
Eb-----------------------------------------------|

  \"It was you Oh-oh-oh-oh-ohhh\"
                                                  Play Chorus 4x

Eb-----------------------------------------------|
Bb-----------------------------------------------|
Gb-----------------------------------------------|
Db-8/10-10-10-8/10-10-10-8\\6-6-6-6/8-8-8-8-6----|
Ab-6/8--8--8--6/8--8--8--6\\4-4-4-4/6-6-6-6-4----|
Eb-----------------------------------------------|

 \"It was you Oh-oh-oh-oh-ohhh\"


Guitar Solo


Verse
Eb----------------------------------------|
Bb----------------------------------------|
Gb-12------12------12----12---------------|
Db-9-------9-------9-----9--------5-4-----|
Ab-7-7-7-7-7-7-7-7-7-7-7-7-7-7-7--5-4-----|
Eb--------------------------------3-2-----|
     . . .   . . .   . .   . . .
\"They got their men promoted before it\'s time\"

Eb----------------------------------------|
Bb----------------------------------------|
Gb-12------12------12----12-------7-8-----|
Db-9-------9-------9-----9--------7-8-----|
Ab-7-7-7-7-7-7-7-7-7-7-7-7-7-7-7--5-6-----|
Eb----------------------------------------|
     . . .   . . .   . .   . . .
\"His neck you break for one thin measly dime\"


Eb----------------------------------------|
Bb----------------------------------------|
Gb-12------12------12----12---------------|
Db-9-------9-------9-----9--------5-4-----|
Ab-7-7-7-7-7-7-7-7-7-7-7-7-7-7-7--5-4-----|
Eb--------------------------------3-2-----|
     . . .   . . .   . .   . . .
\"Don\'t get excited, I got a plan\"


Eb----------------------------------------|
Bb----------------------------------------|
Gb-12------12------12----12-------7-8-----|
Db-9-------9-------9-----9--------7-8-----|
Ab-7-7-7-7-7-7-7-7-7-7-7-7-7-7-7--5-6-----|
Eb----------------------------------------|
     . . .   . . .   . .   . . .
\"We\'ll take him down now, he\'ll be one dead man\"

Pre Chorus
Eb----------------------------------------------|
Bb----------------------------------------------|
Gb-2-2-2----------------------------------------|
Db-2-2-2-----Don\'t Know What-------------------|
Ab-0-0-0-----Goes After This--------------------|
Eb----------------------------------------------|

             \"Yes I\'m the one they call the man\"


Eb--------------------------------------------|
Bb--------------------------------------------|
Gb--------------------------------------------|
Db-3-3-3-----Or this--------------------------|
Ab-3-3-3--------------------------------------|
Eb-1-1-1--------------------------------------|

	     \"Any time at all, I\'m just a hitman\"

Eb----------------------------------------------|
Bb----------------------------------------------|
Gb-2-2-2----------------------------------------|
Db-2-2-2-----Don\'t Know What-------------------|
Ab-0-0-0-----Goes After This--------------------|
Eb----------------------------------------------|
	     \"I\'ll get the job done\"

Eb--------------------------------------------|
Bb--------------------------------------------|
Gb-----------4-4-4----------------------------|
Db-3-3-3-----4-4-4----------------------------|
Ab-3-3-3-----2-2-2----------------------------|
Eb-1-1-1--------------------------------------|
   \"No one will ever know...\"

Chorus
Eb-----------------------------------------------|
Bb-----------------------------------------------|
Gb-----------------------------------------------|
Db-8/10-10-10-8/10-10-10-8\\6-6-6-6/8-8-8-8-6----|
Ab-6/8--8--8--6/8--8--8--6\\4-4-4-4/6-6-6-6-4----|
Eb-----------------------------------------------|

  \"It was you Oh-oh-oh-oh-ohhh\"                   Play Chorus 4x


Eb-----------------------------------------------|
Bb-----------------------------------------------|
Gb-----------------------------------------------|
Db-8/10-10-10-8/10-10-10-8\\6-6-6-6/8-8-8-8-6----|
Ab-6/8--8--8--6/8--8--8--6\\4-4-4-4/6-6-6-6-4----|
Eb-----------------------------------------------|

 \"It was you Oh-oh-oh-oh-ohhh\"


Bridge
Eb---------------------------------------------|
Bb---------------------------------------------|
Gb---------------------------------------------|
Db---------------------------------------------|
Ab-----------------?-?-------------------------|
Eb-000000000000--------------------------------|
   ............

Eb---------------------------------------------|
Bb---------------------------------------------|
Gb---------------------------------------------|
Db-----------------?-?-------------------------|
Ab---------------------------------------------|
Eb-000000000000--------------------------------|
   ............


Eb---------------------------------------------|
Bb---------------------------------------------|
Gb---------------------------------------------|
Db-----------------?-?-------------------------|
Ab---------------------------------------------|
Eb-000000000000--------------------------------|
   ............
\"Just don\'t pay me, then you will see\"


Eb---------------------------------------------|
Bb---------------------------------------------|
Gb---------------------------------------------|
Db-----------------?-?-------------------------|
Ab---------------------------------------------|
Eb-000000000000--------------------------------|
   ............
\"What a dead man really can do\"

Guitar Solos


Eb-----------------------------------------------|
Bb-----------------------------------------------|
Gb-----------------------------------------------|
Db-8/10-10-10-8/10-10-10-8\\6-6-6-6/8-8-8-8-6----|  Play 4x (No Words)
Ab-6/8--8--8--6/8--8--8--6\\4-4-4-4/6-6-6-6-4----|
Eb-----------------------------------------------|

Verse
Eb----------------------------------------|
Bb----------------------------------------|
Gb-12------12------12----12---------------|
Db-9-------9-------9-----9--------5-4-----|
Ab-7-7-7-7-7-7-7-7-7-7-7-7-7-7-7--5-4-----|
Eb--------------------------------3-2-----|
     . . .   . . .   . .   . . .
\"You\'re at the cemetary feeling all alone\"

Eb----------------------------------------|
Bb----------------------------------------|
Gb-12------12------12----12-------7-8-----|
Db-9-------9-------9-----9--------7-8-----|
Ab-7-7-7-7-7-7-7-7-7-7-7-7-7-7-7--5-6-----|
Eb----------------------------------------|
     . . .   . . .   . .   . . .
\"Just like a dog who done stole the bone\"


Eb----------------------------------------|
Bb----------------------------------------|
Gb-12------12------12----12---------------|
Db-9-------9-------9-----9--------5-4-----|
Ab-7-7-7-7-7-7-7-7-7-7-7-7-7-7-7--5-4-----|
Eb--------------------------------3-2-----|
     . . .   . . .   . .   . . .
\"You start to cry or make one little sound\"


Eb----------------------------------------|
Bb----------------------------------------|
Gb-12------12------12----12-------7-8-----|
Db-9-------9-------9-----9--------7-8-----|
Ab-7-7-7-7-7-7-7-7-7-7-7-7-7-7-7--5-6-----|
Eb----------------------------------------|
     . . .   . . .   . .   . . .
\"You\'ll be the next one, I\'ll put you in the ground!\"


Pre Chorus

Eb----------------------------------------------|
Bb----------------------------------------------|
Gb-2-2-2----------------------------------------|
Db-2-2-2-----Don\'t Know What-------------------|
Ab-0-0-0-----Goes After This--------------------|
Eb----------------------------------------------|

             \"Yes I\'m the one they call the man\"


Eb--------------------------------------------|
Bb--------------------------------------------|
Gb--------------------------------------------|
Db-3-3-3-----Or this--------------------------|
Ab-3-3-3--------------------------------------|
Eb-1-1-1--------------------------------------|

	     \"Any time at all, I\'m just a hitman\"

Eb----------------------------------------------|
Bb----------------------------------------------|
Gb-2-2-2----------------------------------------|
Db-2-2-2-----Don\'t Know What-------------------|
Ab-0-0-0-----Goes After This--------------------|
Eb----------------------------------------------|
	     \"I\'ll get the job done\"

Eb--------------------------------------------|
Bb--------------------------------------------|
Gb-----------4-4-4----------------------------|
Db-3-3-3-----4-4-4----------------------------|
Ab-3-3-3-----2-2-2----------------------------|
Eb-1-1-1--------------------------------------|
   \"No one will ever know...\"


Chorus

Eb-----------------------------------------------|
Bb-----------------------------------------------|
Gb-----------------------------------------------|
Db-8/10-10-10-8/10-10-10-8\\6-6-6-6/8-8-8-8-6----|
Ab-6/8--8--8--6/8--8--8--6\\4-4-4-4/6-6-6-6-4----|
Eb-----------------------------------------------|

  \"It was you Oh-oh-oh-oh-ohhh\"
                                                  Play Chorus 4x

Eb-----------------------------------------------|
Bb-----------------------------------------------|
Gb-----------------------------------------------|
Db-8/10-10-10-8/10-10-10-8\\6-6-6-6/8-8-8-8-6----|
Ab-6/8--8--8--6/8--8--8--6\\4-4-4-4/6-6-6-6-4----|
Eb-----------------------------------------------|

 \"It was you Oh-oh-oh-oh-ohhh\"

Then there is another solo with the Verse as the rhythm


	-----
	-----
	-9---
End On	-9---
	-7---
	-----
Tap to rate this tab
# A B C D E F G H I J K L M N O P Q R S T U V W X Y Z