Guitaretab - guitar tabs
Song name
# A B C D E F G H I J K L M N O P Q R S T U V W X Y Z

Metal Church - Blinded By Life tab

again one of my 1st tabs so dont start haten...

|---------------------------|
|---------------------------|
|---------------------------|
|---------------------------|
|---------------------------|
|12/ slide up neck----------|



 [pm]    [pm]                    
|---------------------------|
|---------------------------|
|---------------------------|
|---------------------------|
|----5-5-----5-7-8-7--------|
|000-3-0-000-3-5-6-5--------|


[ Tab from: http://www.guitaretab.com/m/metal-church/99003.html ]
 [pm]     [pm-----------]                 
|---------------------------|
|---------------------------|
|---------------------------|
|---------------------------|
|----5-5--------------------|
|000-3-0-000-000-000-000----|



 [pm]    [pm]
|---------------------------|
|---------------------------|
|---------------------------|
|------------9-8-5-7--------|   }this part sucked, i have
|----5-5--------------------|      no idea what the hells 
|000-3-0-000-7-6-3-5--------|      going on here???

 [pm]     [pm]   [pm]
|-------------12------12|
|-------------12------12|
|-------------12------12|
|-----------------------|
|-----5-5---------------|
|-000-3-0-000----000----|
Related for Blinded By Life tab
Advertisement will be closed in 10 seconds