Song name
# A B C D E F G H I J K L M N O P Q R S T U V W X Y Z

Metal Church - The Believer tab

another metal church song... 
there a good band but they dont have enuf tabs

       [p.m.]          [p.m.]                    
|-----------------------------|
|-----------------------------|
|-----------------------------|
|--5/7----------3/5-----------|
|--3/5----------1/3-----------|
|-----0-0-0-0-0------0-0-0-0-0|

                                

|-----------------------------|
|-----------------------------|
|-----------------------------|
|-5-5\4\3---------------------|
|-3-3\2\1---------------------|
|-----------------------------|



      [p.m.]          [p.m.]                    
|-----------------------------|
|-----------------------------|
|-----------------------------|
|--5/7----------3/5-----------|
|--3/5----------1/3-----------|
|-----0-0-0-0-0------0-0-0-0-0|



|-----------------------------|
|-----------------------------|
|-----------------------------|
|-4-4\3\2---------------------|
|-2-2\1\0---------------------|
|-----------------------------|
Tap to rate this tab
 
# A B C D E F G H I J K L M N O P Q R S T U V W X Y Z