Song name
# A B C D E F G H I J K L M N O P Q R S T U V W X Y Z

Metal Gear Solid - Sons Of Liberty tab

-------------------------------------------------------------------------
Metal Gear Solid 2: Sons Of Liberty Rock Ver. - ???
-------------------------------------------------------------------------------

You can use this on an acoustic guitar if you want...
Intro:

e|----------------------------------------------|
B|--5---5--5----6--6--6----5--5--5---3--3--3----|
G|---5---5--5----5--5--5----5--5--5---4--4--4---|
D|----7---7-------7--7-------7--7------5--5-----|
A|----------------------------------------------|
E|----------------------------------------------|

e|-------------------------------------------|
B|--5---5--5----6--6--6----5--5--5-----3-----|
G|---5---5--5----5--5--5----5--5--5----4-----|
D|----7---7-------7--7-------7--7------5-----|
A|-------------------------------------------|
E|-------------------------------------------|

Verse:

e|-------------------------------------------------------------------------|
B|---------------1-1-0----------------------1-1-0-1-3----------------------|
G|--2-2-2-0-2---2------2-0-0---2-2-2-0-2---2-------------------------------|
D|-------------------------------------------------------------------------|
A|-------------------------------------------------------------------------|
E|-------------------------------------------------------------------------|

e|-------------------------------------------------------------------------|
B|---------------1-1-0----------------------1-1-0-1-3/5(hold 5)------------|
G|--2-2-2-0-2---2------2-0-0---2-2-2-0-2---2-------------------------------|
D|-------------------------------------------------------------------------|
A|-------------------------------------------------------------------------|
E|-------------------------------------------------------------------------|









e|---------------------------5-3--------5/8---7-8-10-8------7-8-7----------|
B|--5-3---3-5---5-3---3-5-------5--3---5--------------10-8-10-----10-8-10--|
G|------5-----2-----5------------5-----------------------------------------|
D|-------------------------------------------------------------------------|
A|-------------------------------------------------------------------------|
E|-------------------------------------------------------------------------|

e|-------------------------7-5-------7/10--9-10-12-10--------9-10-9--------|
B|--7-5---5-7---7-5---5-7-----7--5--7----------------12-10-12------12-10-12|
G|------7-----4-----7----------7-------------------------------------------|
D|-------------------------------------------------------------------------|
A|-------------------------------------------------------------------------|
E|-------------------------------------------------------------------------|

e|-------------------------------------------------------------------------|
B|---------------3-3-2-----------------------3-3-2-3-5---------------------|
G|--4-4-4-2-4--4-------4-2-2---4-4-4-2-4---4-------------------------------|
D|-------------------------------------------------------------------------|
A|-------------------------------------------------------------------------|
E|-------------------------------------------------------------------------|

e|-------------------------------------------------------------------------|
B|---------------3-3-2-----------------------3-3-2-3-5---------------------|
G|--4-4-4-2-4--4-------4-2-2---4-4-4-2-4---4-------------------------------|
D|-------------------------------------------------------------------------|
A|-------------------------------------------------------------------------|
E|-------------------------------------------------------------------------|

e|-------------------------------------------------------------------------|
B|--------------------------------------------2-3-3--3-2-------------------|
G|--4-4-2-4-2-4-2--4-4-2-4-2-4-2--4-4-2-4-2-4-------2----------------------|
D|-------------------------------------------------------------------------|
A|-------------------------------------------------------------------------|
E|-------------------------------------------------------------------------|

e|-------------------------------------------------------------------------|
B|--------------------------------------------2-3-3--3-2/5-----------------|
G|--4-4-2-4-2-4-2--4-4-2-4-2-4-2--4-4-2-4-2-4-------2----------------------|
D|-------------------------------------------------------------------------|
A|-------------------------------------------------------------------------|
E|-------------------------------------------------------------------------|

e|---7-5-----7--10-9-7-6---------------------------------------------------|
B|-------8-7--7------------------------------------------------------------|
G|-4-----------------------------------------------------------------------|
D|-------------------------------------------------------------------------|
A|-------------------------------------------------------------------------|
E|-------------------------------------------------------------------------|

e|----7-5-----14----12-10-9-7-6-7------------------------------------------|
B|5-------8-7----12--------------------------------------------------------|
G|--4----------------------------------------------------------------------|
D|-------------------------------------------------------------------------|
A|-------------------------------------------------------------------------|
E|-------------------------------------------------------------------------|









e|-------------------------------------------|
B|--7--7--7--7--7-----7----------------------|
G|---7--7--7--7--7----7----------------------|
D|----9--9--9--9--9---9----------------------|
A|-------------------------------------------|
E|-------------------------------------------|

e|-------------------------------------------|
B|--10--10--10--10--10-----7-----------------|
G|----7---7---7---7---7----7-----------------|
D|-----9---9---9---9---9---9-----------------|
A|-------------------------------------------|
E|-------------------------------------------|

Guitar 1:
e|-------------------------------------------------------------------------|
B|--7-5---5-7---7-5--------------------------------------------------------|
G|------7-----4------------------------------------------------------------|
D|-------------------------------------------------------------------------|
A|-------------------------------------------------------------------------|
E|-------------------------------------------------------------------------|
Guitar 2:
e|-------------------------------------------------------------------------|
B|--7-5---5-7---7-5--------------------------------------------------------|
G|------7-----4------------------------------------------------------------|
D|-------------------------------------------------------------------------|
A|-------------------------------------------------------------------------|
E|-------------------------------------------------------------------------|

Guitar 1:
e|-------------------------------------------------------------------------|
B|--7-5---5-7---7-5--------------------------------------------------------|
G|------7-----4------------------------------------------------------------|
D|-------------------------------------------------------------------------|
A|-------------------------------------------------------------------------|
E|-------------------------------------------------------------------------|
Guitar 2:
e|-------------------------------------------------------------------------|
B|--7-5---5-7---7-5--------------------------------------------------------|
G|------7-----4------------------------------------------------------------|
D|-------------------------------------------------------------------------|
A|-------------------------------------------------------------------------|
E|-------------------------------------------------------------------------|



e|-------------------------7-5---------10--9-10-12-10--------9-10-9--------|
B|--7-5---5-7---7-5---5-7-----7--5-------------------12-10-12------12-10-12|
G|------7-----4----------------7-------------------------------------------|
D|-------------------------------------------------------------------------|
A|-------------------------------------------------------------------------|
E|-------------------------------------------------------------------------|

e|-------------------------7-5------7--10--9-10-12-10--------9-10-9-9-9-------|
B|--7-5---5-7---7-5---5-7-----7--5-------------------12-10-12--------12-10-12-|
G|------7-----4----------------7----------------------------------------------|
D|----------------------------------------------------------------------------|
A|----------------------------------------------------------------------------|
E|----------------------------------------------------------------------------|


e|-------------------------------------------------------------------------|
B|---------------3-3-2-----------------------3-3-2-3-5---------------------|
G|--4-4-4-2-4--4-------4-2-2---4-4-4-2-4---4-------------------------------|
D|-------------------------------------------------------------------------|
A|-------------------------------------------------------------------------|
E|-------------------------------------------------------------------------|

e|-------------------------------------------------------------------------|
B|---------------3-3-2-----------------------3-3-2-3-5---------------------|
G|--4-4-4-2-4--4-------4-2-2---4-4-4-2-4---4-------------------------------|
D|-------------------------------------------------------------------------|
A|-------------------------------------------------------------------------|
E|-------------------------------------------------------------------------|



Guitar Solo : Dunno Yet....


Guitar 1:

e|---------------------8-8-7--------8-8-8-7-8--8-7-8-7---------------------|
B|--10-10-10-8-10---10------10-8-8-----------------------------------------|
G|-------------------------------------------------------------------------|
D|-------------------------------------------------------------------------| 
A|-------------------------------------------------------------------------|
E|-------------------------------------------------------------------------|

Or

e|-------------------------------------------------------------------------|
B|---------------1-1-0---------1-1-1-0-1---1-0-1-0-------------------------|
G|--2-2-2-0-2---2------2-0-0-----------------------------------------------|
D|-------------------------------------------------------------------------|  
A|-------------------------------------------------------------------------|
E|-------------------------------------------------------------------------|



Guitar 1:

e|---------------8-8--8-8--10-10--12-12--14/15-17-15/17--------------------|
B|-10-10--10-10------------------------------------------------------------|
G|-------------------------------------------------------------------------|
D|-------------------------------------------------------------------------|
A|-------------------------------------------------------------------------|
E|-------------------------------------------------------------------------|

or

e|---------------8-8--8-8--10-10--12-12--3-3--5-3/5------------------------|
B|-10-10--10-10------------------------------------------------------------|
G|-------------------------------------------------------------------------|
D|-------------------------------------------------------------------------|
A|-------------------------------------------------------------------------|
E|-------------------------------------------------------------------------|

or

e|-------------------------------------------------------------------------| 
B|------------1-1--1-1--3-3--5-5--5/8-10-8/10------------------------------|
G|--2-2--2-2---------------------------------------------------------------| 
D|-------------------------------------------------------------------------|
A|-------------------------------------------------------------------------|
E|-------------------------------------------------------------------------|

Guitar 2:

e|-------------------------------------------------------------------------|
B|-----------------------------------------0-1-1---1-0---------------------|
G|-2-2-0-2-0-2-0-2-2-0-2-0-2-0-2-2-0-2-0-2-------0-------------------------|
D|-------------------------------------------------------------------------|
A|-------------------------------------------------------------------------|
E|-------------------------------------------------------------------------|

e|-------------------------------------------------------------------------|
B|-----------------------------------------0-1-1---1-3-3/5(hold)-----------|
G|-2-2-0-2-0-2-0-2-2-0-2-0-2-0-2-2-0-2-0-2-------0-------------------------|
D|-------------------------------------------------------------------------|
A|-------------------------------------------------------------------------|
E|-------------------------------------------------------------------------|

Guitar 1:
e|----------------------------------------------|
B|--5---5--5----6--6--6----5--5--5---3--3--3----|
G|---5---5--5----5--5--5----5--5--5---4--4--4---|
D|----7---7-------7--7-------7--7------5--5-----|
A|----------------------------------------------|
E|----------------------------------------------|

e|-------------------------------------------|
B|--5---5--5----6--6--6----5--5--5-----3-----|
G|---5---5--5----5--5--5----5--5--5----4-----|
D|----7---7-------7--7-------7--7------5-----|
A|-------------------------------------------|
E|-------------------------------------------|



Tabbed By: Kev_goku A.K.A Kevin Kats


************************************

| /   slide up
| \   slide down
| h   hammer-on
| p   pull-off
| ~   vibrato
| +   harmonic
| x   Mute note
| b   Bend
| pb  Pre-bend
| br  Bend release
| pbr Pre-bend release
| brb Bend release bend

************************************
Tap to rate this tab
 
# A B C D E F G H I J K L M N O P Q R S T U V W X Y Z