Song name
# A B C D E F G H I J K L M N O P Q R S T U V W X Y Z

Metal Gear Solid - Main Theme tab

E |-------------|-----------------0-----|--0----------------------|
B |~5----~3-----|-\1-----------3--------|--------3-----------1--3-|
G |-------------|--------------------2--|--------2----------------|
D |-------------|-----------2-----------|--------3----------------|
A |-------------|--0--------------------|--------0----------------|
E |-------------|-----------------------|-------------------------|

E |-0--------------5--3--0--|--------------------0--5-|
B |-------------------------|--1-----3----------------|
G |-0-----------------------|--2----------------------|
D |-------------------------|--3----------------------|
A |-0-----------------------|-------------------------|
E |-------------------------|--1----------------------|

E |-8--------------7--8--10-|--8-----------------------|
B |-------------------------|--------10----------8--10-|
G |-------------------------|--------10----------------|
D |-------------------------|--------10----------------|
A |-0-----------------------|--8-----------------------|
E |-------------------------|--------------------------|

E |-7--------8-----7--5--3--|--5-----------5----------|
B |-8-----------------------|--3-----------3----------|
G |-0-----------------------|--0-----------0----------|
D |-------------------------|-------------------------|
A |-------------------------|--5--5-----5--5--5-----5-|
E |-------------------------|-------------------------|

E |-5-----------------------|--------------------0----|
B |-3-----------5-----3-----|-\1--------------3-------|
G |-------------------------|--------2-----------2--2-|
D |-4-----------------------|-----2-----2-----2-----2-|
A |-5--5-----5--------------|--0-----------0----------|
E |-------------------------|-------------------------|

E |-0-----------------------|--0--------------5--3--0-|
B |-------3-----------1--3--|--1----------------------|
G |-------2-----------------|--------0----------------|
D |----3-----3-----3--------|-----2-----2-------------|
A |-------------------------|--3-----------3----------|
E |-1-----------1-----------|-------------------------|

E |-------------------0--5--|--8--------------7--8--10-|
B |-1-----3-----------------|--------------------------|
G |-------2-----------------|--------5-----------------|
D |----3-----3-----3--------|-----7-----7--------------|
A |-------------------------|--0-----------0-----------|
E |-1-----------1-----------|--------------------------|

E |-8-----------------------|--7--------8-----7--5--3-|
B |-------10----------8--10-|--8-----8--10----8--7--5-|
G |-------10----------------|-----0-----------0-------|
D |----10----10----10-------|-------------------------|
A |-8-----------8-----------|-------------------------|
E |-------------------------|-------------------------|

E |-5-----------5-----------|--5-----------2-----0----|
B |-3-----------3-----------|--3----------------------|
G |-0-----------0-----------|-------------------------|
D |-------------------------|--4----------------------|
A |-5-5-5----5--5-5-5----5--|--5-5-5----5-------------|
E |-------------------------|-------------------------|

E |-------------------2-----|--2----------------------|
B |-3--------------5--------|--------5-----------3--5-|
G |-------4-----------4--4--|--------2-----------2----|
D |----4-----4-----4-----4--|-----2-----2-----2-----2-|
A |-2-----------2-----------|--0-----------0----------|
E |-------------------------|-------------------------|

E |----------------7--5--2--|--------0-----------2--7-|
B |-7-----------------------|--3-----3-----------3----|
G |-------7-----------------|--------0-----------0----|
D |----7-----7--------------|-----0-----0-----0-------|
A |-5-----------5-----------|-------------------------|
E |-------------------------|--3-----------3----------|

E |-10-------------9--10-12-|--10----7--------------7-|
B |-------------------------|--0-----0-----------10---|
G |-------------------------|-------------------------|
D |-------9-----------------|-----9-----9-----9-------|
A |----9-----9--------------|--10----------10---------|
E |-7-----------7-----------|-------------------------|

E |-9--------10----9--7--5--|--7-----------7----------|
B |-------10-12----10-9--7--|--10----------10---------|
G |-------------------------|--9-----------9----------|
D |----11-------------------|-------------------------|
A |-0-----------------------|--7--7-----7--7--7-----7-|
E |-------------------------|-------------------------|

E |-7-----------7-----9-----|--10----------12---------|
B |-9-----------------------|-------------------------|
G |-9-----------------------|--0--0-----0-----0-----0-|
D |-------------------------|-------------------------|
A |-7--7-----7--------------|-------------------------|
E |-------------------------|-------------------------|

E |-14----------17----------|-h7----------------------|
B |-------------------------|-h7----------------------|
G |-------------------------|-h7----------------------|
D |-------------------------|-------------------------|
A |-0--0-----0-----0-----0--|-------------------------|
E |-------------------------|-h7----------------------|
Tap to rate this tab
# A B C D E F G H I J K L M N O P Q R S T U V W X Y Z