Song name
# A B C D E F G H I J K L M N O P Q R S T U V W X Y Z

Metallica - Suicide And Redemption tab

e|--------------------|
B|--------------------|
G|--------------------|
D|--------------------|
A|----9----9----10----|
E|----7----7----8-----|  x6

e|--------------------|
B|--------------------|
G|--------------------|
D|--------------------|
A|--------9-----------|
E|--------7-----------|  x4

e|---------------------|
B|---------------------|
G|---------------------|
D|---------------------|
A|---------------------|
E|---7-7-5-7-7-5-8-5---|  x8

e|--------------------------------------------|
B|--------------------------------------------|
G|--------------------------------------------|
D|--------------------------------------------|
A|---9--X--9--X--9--X--10-10-10-10-10-10-10---|
E|---7--X--7--X--7--X---8--8--8--8--8--8--8---|  x4

e|----------------------------------|
B|----------------------------------|
G|----------------------------------|
D|---7b^8r7-------------------------|
A|---5b^6r5-9-----------------------|
E|----------7---5-7-7-5-7-7-5-8-5---|  x4

e|--------------------------------------------------------------------
B|--------------------------------------------------------------------
G|--------------------------------------------------------------------
D|-7-7-7-7-7-7-7-7-7-7-7-7-7-7-7-7/14-14-14-14-14-14-14-14-14-14-14-14
A|-5-5-5-5-5-5-5-5-5-5-5-5-5-5-5-5/12-12-12-12-12-12-12-12-12-12-12-12
E|--------------------------------------------------------------------

e|-------------|
B|-------------|
G|-------------|
D|-14-14-14-14-|
A|-12-12-12-12-|
E|-------------|

e|----------------------------------|
B|----------------------------------|
G|----------------------------------|
D|---7b^8r7-------------------------|
A|---5b^6r5-9-----------------------|
E|----------7---5-7-7-5-7-7-5-8-5---|  x4

e|--------------------------------------------------|
B|--------------------------------------------------|
G|--------------------------------------------------|
D|--------------------------------------------------|
A|---\4-4-0-2-0-2-0-10\9-X-10\9-0-2-2-0-2-0-2-0-2---|
E|---\2-2-0-2-0-2-0--8\7-X--8\7-0-2-2-0-2-0-2-0-2---|  x2

e|-------------------------|
B|-------------------------|
G|-------------------------|
D|-------------------------|
A|-7-7-7-7-7-7-8-8-8-8-8-8-|
E|-------------------------|

e|--------------------------------------------------|
B|--------------------------------------------------|
G|--------------------------------------------------|
D|--------------------------------------------------|
A|---\4-4-0-2-0-2-0-10\9-X-10\9-0-2-2-0-2-0-2-0-2---|
E|---\2-2-0-2-0-2-0--8\7-X--8\7-0-2-2-0-2-0-2-0-2---|

e|-------------------------------------------|
B|-------------------------------------------|
G|-----------------------------------------8-|
D|-------------------------------------7-8---|
A|-7-7-7-7-7-7-8-8-8-8-8-8-9-9-9-9-9-9-------|
E|-------------------------------------------|

e|----------------------------------|
B|----------------------------------|
G|----------------------------------|
D|---7b^8r7-------------------------|
A|---5b^6r5-9-----------------------|
E|----------7--5--7-7-5-7-7-5-8-5---|
Tap to rate this tab
# A B C D E F G H I J K L M N O P Q R S T U V W X Y Z