Guitaretab - guitar tabs
Song name
# A B C D E F G H I J K L M N O P Q R S T U V W X Y Z

Metallica - That Was Just You Life tab

               METALLICA: That Was Just You Life
                      
          Death Magnetic ROCKS!!!!!!!!!   

             Made by Dude!"#%&/().          

|-------------------------------------------------------------------|
|-------------------------------------------------------------------|
|-------------------------------------------------------------------|
|-------------------------------------------------------------------|
|------------7-----------------------------7------------------------|
|---000--5-6----6-5-6-------------000--5-6----6-5-6-----------------|
 PM|---|                       PM|---|


|-------------------------------------------------------------------|
|-------------------------------------------------------------------|
|-------------------------------------------------------------------|
|-------------------------------------------------------------------|
|------------7------------------------------------------------------|
|---000--5-6----6-5-6----------5-3-5-6-5-3-1-0----------------------|
 PM|---|                     


|-------------------------------------------------------------------| x2
|-------------------------------------------------------------------|
|-------------------------------------------------------------------|
|------------------------------------------------------3------------|
|---------7~------------7~------------7~---------------1---3--------|
|---0-5-6---------0-5-6---------0-5-6----------------------1--------|


[ Tab from: http://www.guitaretab.com/m/metallica/115255.html ]
|-------------------------------------------------------------------| x3
|-------------------------------------------------------------------|
|-------------------------------------------------------------------|
|-------------------------------------------------------------------|
|-------------------------------------------------------------------|
|--0-0--0--0--0-0-0--0--0--0-0-0--0--0--0---5-3-5-6-5-3-1-0---------|
 PM|-------------------------------------|


|---------------------|    |-----------------|
|---------------------|    |-----------------|
|---------------------|    |-----------------|
|---------------------|    |----3-3----------|
|------2-2---3-3------|    |----1-1---3-3----|
|------0-0---1-1------|    |----------1-1----|
    PM|---|




|----------------------------------------------------------------|
|----------------------------------------------------------------|
|----------------------------------------------------------------|
|-9-9-9-9-9-9----------------------------------------------------|
|-7-7-7-7-7-7-8-8-7-7-7-7-7-7-5-5-3-3-3-3-3-3-3-3--3--2--2--2----|
|-------------6-6-5-5-5-5-5-5-3-3-1-1-1-1-1-1-1-1--1--0--0--0----|



|---------------------------------------------------------------------|
|---------------------------------------------------------------------|
|---------------------------------------------------------------------|
|-9-9-9-9-9-9-----------------------------------------------5--5--5---|
|-7-7-7-7-7-7-8-8-7-7-7-7-7-7-5-5-3-3-3-3-3-3-3-3-3---3--2--3--3--3---|
|-------------6-6-5-5-5-5-5-5-3-3-1-1-1-1-1-1-1-1-3---1--0--3--3--3---|



|------------------------------------------------------------------|
|------------------------------------------------------------------|
|------------------------------------------------------------------|
|-9-9-9-9-9-9--------------------------------------------7--7--7---|
|-7-7-7-7-7-7-8-8-7-7-7-7-7-7-5-5-3-3-3-3-3-3-3-3--3--2--5--5--5---|
|-------------6-6-5-5-5-5-5-5-3-3-1-1-1-1-1-1-1-1--1--0--5--5--5---|



|---------------------------------------------------|
|---------------------------------------------------|
|---------------------------------------------------|
|-9-9-9-9-9-9---------------------------------------|
|-7-7-7-7-7-7-8-8-7-7-7-7-7-7-5-5-3-3-3-3-3-3-3-3---|
|-------------6-6-5-5-5-5-5-5-3-3-1-1-1-1-1-1-1-1---|




Related for That Was Just You Life tab