Song name
# A B C D E F G H I J K L M N O P Q R S T U V W X Y Z

Metallica - Blitzkrieg tab

---------------------------------------------------------------------------
			  Blitzkrieg - Metallica
---------------------------------------------------------------------------

Tabbed by: Braden L.
Username: graff_it
Email:bradeo9009@hotmail.com

Band: Metallica
Album: Garage Days Revisited (1984)
Song: Blitzkrieg

Tuning:eBGDAE (standard)

I think this tab is just about correct.. I dont have any solos or 
lead stuff but the rhythm parts are pretty much complete except 
for some riff variations there might be.
Enjoy the tab!

Intro
e|---------------------------------|--------------------|
B|---------------------------------|--------------------|
G|--7--7/9-----7---7/9-----7---7/7-|--------------------|
D|--7--7/9-----7---7/9-----7---7/7-|-----9-10----7------|
A|--5--5/7-----5---5/7-----5---5/9-|-----9-10----7------|
E|---------0-0---0-----0-0---0-----|-0-0-7-8-0-0-5-0-0--|
           ...   .     ...    .      ...     ...   ...

Verse
e|---------------------------------|
B|---------------------------------|
G|---------------------------------|
D|---------------------------------|
A|---------------------------------|
E|--0-2-0-0-3-0-0-2-0-0-3-0-0-2h3--|
    .........................

e|---------------------------------|
B|---------------------------------|
G|---------------------------------|
D|----------------------------5/4--|
A|----------------------------3/2--|
E|--0-2-0-0-3-0-0-2-0-0-3-0-0------|
    .........................

Chorus
e|---------------------|
B|---------------------|
G|--2-x-5\4/5-----4/5--|
D|--2-x-5\4/5-----4/5--|
A|--0-x-3\2/3-3-3-2/3--|
E|---------------------|
              ...

Here comes the solo...

Rhythm for the solo
e|----------------------------|-----------------------------|
B|----------------------------|-----------------------------|
G|----------------------------|-----------------------------|
D|----------------------------|-----------------------------|
A|----------------------------|-----------------------------|
E|--2-2-2-2-2-2-2-2-2-2-2-2-2-|-2-2-2-2-2-2-2-2-2-2-2-2-2/--|
    .........................   .........................

e|----------------------------|-----------------------------|
B|----------------------------|-----------------------------|
G|----------------------------|-----------------------------|
D|----------------------------|-----------------------------|
A|----------------------------|-----------------------------|
E|--4-4-4-4-4-4-4-4-4-4-4-4-4-|-4-4-4-4-4-4-4-4-4-4-4-4-4/--|
    .........................   .........................

e|----------------------------|-----------------------------|
B|----------------------------|-----------------------------|
G|----------------------------|-----------------------------|
D|----------------------------|-----------------------------|
A|----------------------------|-----------------------------|
E|--6-6-6-6-6-6-6-6-6-6-6-6-6-|-6-6-6-6-6-6-6-6-6-6-6-6-6/--|
    .........................   .........................

e|---------|---------|
B|---------|---------|
G|-------5-|------5--|
D|--2----5-|-2----5--|
A|--2----3-|-2----3--|
E|--0------|-0-------|

e|----------------------------------|------------------------------|
B|----------------------------------|------------------------------|
G|----------------------------------|------------------------------|
D|----------------------------------|------------------------------|
A|----------------------------------|------------------------------|
E|--0-0-0-0-0-0-0-0-0-0-0-0-0-0-0-0-|-8-8-8-8-8-8-8-8-7-7-5-5-3-3--|
    ...............................   ...........................

This part's a bit complicated..
e|-----------------------------------|
B|-----------------------------------|
G|-----------------------------------|
D|--9--11--11-9---9-----11---11-9----|
A|--7--7---7--7---7-----7----7--7----|
E|--0--0-0-0--0-0-0-0-0-0--0-0--0-0--|
         .      .   ...    .      .

e|-----------------------------------|
B|----------------5-----6---6-5------|
G|----------------5-----5---5-5------|
D|--5-5-5-7-3-2---5-----5---5-5------|
A|--3-3-3-3-3-3-3-3-3-3-3-3-3-3-3-3--|
E|-----------------------------------|
                .   ...   .     ...

e|--------------------------------|-------------------------|
B|--------------------3---3-2-----|-------------------------|
G|--2-----------------2---2-2-----|-------------------------|
D|--2-0-2-0-2---2-----2---2-2-----|-------------------------|
A|--0---0---0-0-0-0-0---0-----0---|----------------3p2------|
E|------------------------------0-|-3~-2~-3~-0-2-3-----3p2--|
              .   ...   .     . .            .....

e|----------------------|----------------------------|
B|----------------------|----------------------------|
G|----------------------|----------------------------|
D|----------------------|-------------------------2--|
A|----------------------|----------------3p2------2--|
E|--0-2-0-0-3-0-0-2-0-0-|-3~-2~-3~-0-2-3-----3p2--0--|
    ...................            .....

| .  palm mute
| /  slide up
| \  slide down
| h  hammer-on
| p  pull-off
| ~  vibrato
| +  harmonic
| x  Mute note
========================================================================
Tap to rate this tab
# A B C D E F G H I J K L M N O P Q R S T U V W X Y Z