Song name
# A B C D E F G H I J K L M N O P Q R S T U V W X Y Z

Metallica - Devils Dance tab

Devil's Dance
Metallica
D-Tuning (1 step down- DGCFAD)

******(note)******
I did not tab the solo,
I just copied it from some dude..
Sorry..
******(note)******

~ ring note
* pinch note
- pm
^ grad bend
b bend
r release
h hammer on
p pull off
/ slide notes


Bass Intro x4- Jase
F||-----------------------------------------------------|
C||o----------------------------------------------------|
G||o----------------------------------------------------|
D||--6--0----0------0---3---0----0---5---3---0---3---5--|

F|------------------------------------------------------||
C|-----------------------------------------------------o||
G|-----------------------------------------------------o||
D|-0----0----0------0---3---0----0---5---3---0---3---5--||


Gtr 1- Jaymz
Distortion w/ Delay
D|---------------------------------------|
A|---------------------------------------|
F|---------------------------------------|
C|--2-2-------2-2-2------2------2-2-2-2--|
G|--2-2-------2-2-2-7~---2------2-2-2-2--|
D|--0-0-------0-0-0-5~---0------0-0-0-0--|
    pm-       - - -      -      - - - -

Gtr 1- Jaymz
D||--------------------------------||
A||o------------------------------o||
F||--------------------------------||
C||--------------------------------||
G||o-2-2-2-2-2--2-2--2-2--2-2-2-2-o||
D||--0-0-0-0-0--0-0--0-0--0-0-0-0--||
     pm- - - -  - -  - -  - - - -
Gtr 2- Kirkster
D||--------------------------------||---------------------|
A||o-----------------grad-bends---o||---------------------|
F||------------5-----^^^^^^^-------||--------^^^^^^^------|
C||------------5---5-7-7-7-7-5-----||------5-7-7-7-7-5----|
G||o-5h7-7-7-7---7-------------7/-o||----7-------------7--|
D||--------------------------------||---------------------|
         - - -

Gtr 1,2
D|--------------|
A|--------------|
F|--------------|
C|--2~~-detune--|
G|--2~~-detune--|
D|--0~~-detune--|
(benk the neck forward or use the bar)

Jaymz
D|---------------------------------------------------------|
A|---------------------------------------------------------|
F|---------------------------------------------------------|
C|---------------------------------------------------------|
G|-/7-----/7------7*----/7------7*----/7----7*--/7---------|
D|----6~~~~--5~~~~--6~~~~--5~~~~--6~~----5~~--6~~--5-6br-3-|
Kirkster
D|----------------------------------------------------|
A|----------------------------------------------------|
F|----------------------------------------------------|
C|--------------------------------3------2----3----2--|
G|--------------------------------1------0----1----0--|
D|----------------------------------------------------|

Jaymz
D|---------------------------------------------|
A|---------------------------------------------|
F|---------------------------------------------|
C|---------------------------------------------|
G|--*7------/7------/7------/7-----------------|
D|-----6~~-----5~~-----6~~-----5~~--6--5--3-5--|
Kirkster
D|---------------------------------------------|
A|---------------------------------------------|
F|---------------------------------------------|
C|-----3-------2-------3-------2----3--2-------|
G|-----1-------0-------1-------0----1--0----0--|
D|----------------------------------------3----|


Verse                    x4
D||----------------------||-------------|
A||o--------------------o||-------------|
F||----------------------||-------------|
C||----------------------||-------------|
G||o-2-2-2-2-2-5--2-2-2-o||-------------|
D||--0-0-0-0-0-3--0-0-0--||--5h6p5-3br--|
     pm- - - -    - - 
"Yeah, I feel you too."

D||----------------------||------------|
A||o--------------------o||------------|
F||----------------------||------------|
C||----------------------||------------|
G||o-5-5-5-5-5-5--5-5-5-o||------------|
D||--3-3-3-3-3-3--3-3-3--||-5h6p5-3br--|
     pm- - - - -  - -
"In your eyes."

D|-------------------------------------------|
A|-------------------------------------------|
F|-------------------------------------------|
C|-------------------------------------------|
G|--5-5-5-5-5--5-5--5-5-5-5--4-4-4-4-4--4-4--|
D|--3-3-3-3-3--3-3--3-3-3-3--2-2-2-2-2--2-2--|
    pm- - - -  - -  - - - -  - - - - -  -
"Deep inside you know these seeds I plant will grow"

Jaymz
D|-----------------------------------------|
A|-----------------------------------------|
F|-----------------------------------------|
C|-----------------------------------------|
G|-/7-----/7------7*----/7-----------------|
D|----6~~~~--5~~~~--6~~~~--5~~~~--6-5-3-5--|
Kirkster
D|-----------------------------------------|
A|-----------------------------------------|
F|-/9-----/9-----/9-----/9-----------------|
C|-----------------------------------------|
G|-/7-----/7-----/7-----/7-----------------|
D|----6~~~~--5~~~~--6~~~~--5~~~~--6-5-3-5--|

Chorus                                        x3
D||-------------------------------------------||
A||o-----------------------------------------o||
F||-------------------------------------------||
C||-------------------------------------------||
G||o-8--8-8-8--8-8-8--8-8-7--2-2--5-5------8-o||
D||--6--6-6-6--6-6-6--6-6-5--0-0--3-3--0-3-6--||
     pm - - -  - - -  - - -  - -           -
"One day you will see."

Jaymz
D||------------------------------------------||
A||o----------------------------------------o||
F||------------------------------------------||
C||------------------------------------------||
G||o-/7-----/7------7*----/7----------------o||
D||-----6~~~~--5~~~~--6~~~~--5~~~~--6-5-3-5--||
Kirkster
D||------------------------------------------||
A||o----------------------------------------o||
F||--/9-----/9-----/9-----/9-----------------||
C||------------------------------------------||
G||o-/7-----/7-----/7-----/7----------------o||
D||-----6~~~~--5~~~~--6~~~~--5~~~~--6-5-3-5--||

Verse                    x4
D||----------------------||-------------|
A||o--------------------o||-------------|
F||----------------------||-------------|
C||----------------------||-------------|
G||o-2-2-2-2-2-5--2-2-2-o||-------------|
D||--0-0-0-0-0-3--0-0-0--||--5h6p5-3br--|
     pm- - - -    - - 
"Snake.. I am the snake.”

D||----------------------||------------|
A||o--------------------o||------------|
F||----------------------||------------|
C||----------------------||------------|
G||o-5-5-5-5-5-5--5-5-5-o||------------|
D||--3-3-3-3-3-3--3-3-3--||-5h6p5-3br--|
     pm- - - - -  - -
"Let me make your mind”

Kirkster
D|--------------------|
A|----5-------5-------|
F|------4~~~----4~~~--|
C|--5-------5---------|
G|--------------------|
D|--------------------|
lead fill (2nd and 3rd verses)

D|-------------------------------------------|
A|-------------------------------------------|
F|-------------------------------------------|
C|-------------------------------------------|
G|--5-5-5-5-5--5-5--5-5-5-5--4-4-4-4-4--4-4--|
D|--3-3-3-3-3--3-3--3-3-3-3--2-2-2-2-2--2-2--|
    pm- - - -  - -  - - - -  - - - - -  -
"I’ve got what you need, hunger I will feed"

Jaymz
D|-----------------------------------------|
A|-----------------------------------------|
F|-----------------------------------------|
C|-----------------------------------------|
G|-/7-----/7------7*----/7-----------------|
D|----6~~~~--5~~~~--6~~~~--5~~~~--6-5-3-5--|
Kirkster
D|-----------------------------------------|
A|-----------------------------------------|
F|-/9-----/9-----/9-----/9-----------------|
C|-----------------------------------------|
G|-/7-----/7-----/7-----/7-----------------|
D|----6~~~~--5~~~~--6~~~~--5~~~~--6-5-3-5--|

Chorus                                        x3
D||-------------------------------------------||
A||o-----------------------------------------o||
F||-------------------------------------------||
C||-------------------------------------------||
G||o-8--8-8-8--8-8-8--8-8-7--2-2--5-5------8-o||
D||--6--6-6-6--6-6-6--6-6-5--0-0--3-3--0-3-6--||
     pm - - -  - - -  - - -  - -           -
"One day you will see."

Jaymz
D||--------------------------------||
A||o------------------------------o||
F||--------------------------------||
C||--------------------------------||
G||o-2-2-2-2-2--2-2--2-2--2-2-2-2-o||
D||--0-0-0-0-0--0-0--0-0--0-0-0-0--||
     pm- - - -  - -  - -  - - - -
Kirkster
D||--------------------------------||
A||o-----------------grad-bends---o||
F||------------5-----^^^^^^^-------||
C||------------5---5-7-7-7-7-5-----||
G||o-5h7-7-7-7---7-------------7/-o||
D||--------------------------------||


_________________________________________________

solo:  *This solo is very difficult to play without a whammy/pitch shifting
        pedal and a Floyd Rose or other locking tremlo bridge.  Kirk uses it in 
        various places which allows him to hit just one note and take it all over
        the place without moving.  The solo also uses tremlo and octave effects
        which gives it the real "out there" sound.*

play rhythm riff 2b twice
D|------------------------------------------------------------------|
A|------------------------------------------------------------------|
F|--12~~12~~12~~12~~12~~12~~12~~11~~11~~10~~9~~8~~7~~6~~5~~4~3~2~1--|
C|------------------------------------------------------------------|
G|------------------------------------------------------------------|
D|------------------------------------------------------------------|
just use the tremolo or the pitch shifter & just pick 12.

D||--/12--15-15-15--12\-/12--15-15-15--12\-/12--15-15-17-15--||
A||o-/12--17-17-17--12\-/12--17-17-17--12\-/12--17-17-17-17-o||
F||--/12------------12\-/12------------12\-/12---------------||
C||----------------------------------------------------------||
G||o--------------------------------------------------------o||
D||----------------------------------------------------------||

D||----------------------------------------||
A||o-14b14b14b14b----------------------12-o||
F||--14b14b14b14b-12-------------------12--||
C||------------------14-12-14--14~~14~~----||
G||o--------------------------------------o||
D||----------------------------------------||
"One day you will see."
"And dare to come down to me."

D|-----------------------------------------------16/17/18/19/20\19\18\17--|
A|-----------------------------------17/18/19/20--------------------------|
F|--14/14/15/15/16/16/17/17/18/19/20--------------------------------------|
C|------------------------------------------------------------------------|
G|------------------------------------------------------------------------|
D|------------------------------------------------------------------------|

D|--17\16\15/16/17/18/19/20\19\18\17------|
A|-----------------------------------\12--|
F|-----------------------------------\12--|
C|----------------------------------------|
G|----------------------------------------|
D|----------------------------------------|
Here is the biggest part where the pitch shifting comes in, Kirk also hits
the Rose for the stuttering sound.  I think the only note he actually plays
is the F-14.

D|-------------------------------12----12--------------------|
A|----------------------------12----15----15-12--------------|
F|-------------------------14-------------------14-12--------|
C|--7-7-5---5-----------7-----------------------------14-12--|
G|--------7---7-5-7-5-7--------------------------------------|
D|-----------------------------------------------------------|

D|-----------------------------------------------------------|
A|-----------------------------------------------------------|
F|--12h13p12h13h14p13h14h15p14h15h16p15h16h17 ect.-up-to-22--|
C|-----------------------------------------------------------|
G|-----------------------------------------------------------|
D|-----------------------------------------------------------|

Verse                    x4
D||----------------------||-------------|
A||o--------------------o||-------------|
F||----------------------||-------------|
C||----------------------||-------------|
G||o-2-2-2-2-2-5--2-2-2-o||-------------|
D||--0-0-0-0-0-3--0-0-0--||--5h6p5-3br--|
     pm- - - -    - - 
"Yeah, I feel you too."

Kirkster
D|--------------------|
A|----5-------5-------|
F|------4~~~----4~~~--|
C|--5-------5---------|
G|--------------------|
D|--------------------|
lead fill

D||----------------------||------------|
A||o--------------------o||------------|
F||----------------------||------------|
C||----------------------||------------|
G||o-5-5-5-5-5-5--5-5-5-o||------------|
D||--3-3-3-3-3-3--3-3-3--||-5h6p5-3br--|
     pm- - - - -  - -
"In your eyes."

D|-------------------------------------------|
A|-------------------------------------------|
F|-------------------------------------------|
C|-------------------------------------------|
G|--5-5-5-5-5--5-5--5-5-5-5--4-4-4-4-4--4-4--|
D|--3-3-3-3-3--3-3--3-3-3-3--2-2-2-2-2--2-2--|
    pm- - - -  - -  - - - -  - - - - -  -
"Deep inside you know these seeds I plant will grow"

Jaymz
D|-----------------------------------------|
A|-----------------------------------------|
F|-----------------------------------------|
C|-----------------------------------------|
G|-/7-----/7------7*----/7-----------------|
D|----6~~~~--5~~~~--6~~~~--5~~~~--6-5-3-5--|
Kirkster
D|-----------------------------------------|
A|-----------------------------------------|
F|-/9-----/9-----/9-----/9-----------------|
C|-----------------------------------------|
G|-/7-----/7-----/7-----/7-----------------|
D|----6~~~~--5~~~~--6~~~~--5~~~~--6-5-3-5--|

Chorus                                        x3
D||-------------------------------------------||
A||o-----------------------------------------o||
F||-------------------------------------------||
C||-------------------------------------------||
G||o-8--8-8-8--8-8-8--8-8-7--2-2--5-5------8-o||
D||--6--6-6-6--6-6-6--6-6-5--0-0--3-3--0-3-6--||
     pm - - -  - - -  - - -  - -           -
"One day you will see."

Jaymz
D|-----------------------------------------|
A|-----------------------------------------|
F|-----------------------------------------|
C|-----------------------------------------|
G|-/7-----/7------7*----/7-----------------|
D|----6~~~~--5~~~~--6~~~~--5~~~~--6-5-3-5--|
Kirkster
D|-----------------------------------------|
A|-----------------------------------------|
F|-/9-----/9-----/9-----/9-----------------|
C|-----------------------------------------|
G|-/7-----/7-----/7-----/7-----------------|
D|----6~~~~--5~~~~--6~~~~--5~~~~--6-5-3-5--|

D|-------------------------------------------|
A|-------------------------------------------|
F|-------------------------------------------|
C|-------------------------------------------|
G|--8--8-8-8--8-8-8--8-8-7--2-2--5-5------8--|
D|--6--6-6-6--6-6-6--6-6-5--0-0--3-3--0-3-6--|
    pm - - -  - - -  - - -  - -           
"It’s nice to see you here...           ..HA HA!”
Tap to rate this tab
# A B C D E F G H I J K L M N O P Q R S T U V W X Y Z