Guitaretab - guitar tabs
Song name
# A B C D E F G H I J K L M N O P Q R S T U V W X Y Z

Metallica - Escape tab

-------------------------------------------------------------------------
                 ESCAPE - Metallica
-------------------------------------------------------------------------
Tabbed by: -jules-
Email:

Tuning: Standard
   full
e|------------------------------------------------|
B|15b-------15b---15b---15b15b15b15b---15p12------|
G|-------------------------------------------14---|
D|------------------------------------------------|
A|------------------------------------------------|
E|------------------------------------------------|

e|15b---15b---15b---15br15----15p12----12---------|
B|----------------------------------15----15b-----|
G|------------------------------------------------|
D|------------------------------------------------|
A|------------------------------------------------|
E|------------------------------------------------|

e|15-14-12----14-12-------12----------------------|
B|---------15-------15-13----15-13----15-13-------|
G|---------------------------------15-------15-14-|
D|------------------------------------------------|
A|------------------------------------------------|
E|------------------------------------------------|

e|-------------------------------------------------------------------------|
B|13-----------------------------------------------------------------------|
G|---15-14-12-14-12--------------------------------------------------------|
D|------------------15-14-15-14-15--12--14--15--14--12--14--15b-121412--12-|
A|--------------------------------------------------------------------14---|
E|-------------------------------------------------------------------------|
[ Tab from: http://www.guitaretab.com/m/metallica/11856.html ]
e|----------------------------------------|
B|17---15---14--------14---15---14--------|
G|---------------16------------------16---|
D|----------------------------------------|
A|----------------------------------------|
E|----------------------------------------|

e|------------------------------------------------|
B|------------------------------------------------|
G|14---16---16br-14---14---16---14~~----12--------|
D|-------------------------------------------14~~-|
A|------------------------------------------------|
E|------------------------------------------------|

e|------------------------------------------------|
B|------------------------------------------------|
G|9---11---11b---9h11p9-11~~-----------9---11-----|
D|--------------------------------11--------------|
A|------------------------------------------------|
E|------------------------------------------------|

e|------------------------------------------|
B|------9----12p9----9-12p9-10p9----9-------|
G|11b-------------11-------------11---11-9--|
D|------------------------------------------|
A|------------------------------------------|
E|------------------------------------------|

e|--------------------9-12p9----------------|
B|-------------9-12p9--------12p9-----------|
G|11p9----9-11--------------------12-9-8----|
D|-----11-----------------------------------|
A|------------------------------------------|
E|------------------------------------------|


e|------------------------------------------|---------|
B|------------------------------------------|---------|
G|121212121312121214121212151212121217121212|15~~-----|
D|------------------------------------------|---------|
A|------------------------------------------|---------|
E|------------------------------------------|---------|

| /  slide up
| \  slide down
| h  hammer-on
| p  pull-off
| ~  vibrato
| +  harmonic
| x  Mute note
============================================================================
Related for Escape tab
Escape chords by Metallica