Song name
# A B C D E F G H I J K L M N O P Q R S T U V W X Y Z

Metallica - Nothing Else Matters tab

  This is my version of this tab. I've previousely used other tabs to help me and I
it out myself. Most people get it wrong but if you listen really carefully at the song and
to each note being played, you will see that my tab is correct. People say that I can 
this song perfectly.

~  - Let ring
\  - Slide to required note
h  - Hammer on
p  - Pull off
<> - Harmonics
{} - Played Louder
() - Played Softer
[] - Continued Note from Last Bar
=  - Staccato
b* - Bend to required pith
r* - Bend Return to required pitch
#*#- If you wish, play the required fill here.

Tuning: Standard - Low to High (E;A;D;G;B;e)


x x x x x x x x x x x x x x x x x x x x x x x x x x x x x x x x x x x x x
Intro - Single Guitar
Clean Electric - Kirk (Guitar 1 - Finger Picked), I personally use a Pick

e|--------0-------|--------0-------|--------0-------|--------0----7--|
B|------0---0-----|------0---0-----|------0---0-----|------0---0-----|
G|----0-------0---|----0-------0---|----0-------0---|----0-----------|
D|----------------|----------------|----------------|----------------|
A|----------------|----------------|----------------|----------------|
E|-0--------------|-0--------------|-0--------------|-0--------------|
  Em
e|-7------7p0-----|-----7--8-7h8-5-|5h7---5\2-2------|------2p0-------|
B|---0--------0---|-----0--0-------|0h0--------------|-5---5-----5----|
G|-----0--------0-|---0------------|-----------------|---5----------5-|
D|----------------|----------------|-----------------|----------------|
A|----------------|----------------|-----------------|-0--------------|
E|-0--------------|-0--------------|-----------------|----------------|
                                                     Am
e|-------0--0-0-|-0~------3p0---0-|-0~-----0~h5p0--------|
B|-----5----5-5-|-5~---5-----5--5-|-7~---7-------7p0-0h5-|
G|---5------5-5-|-5~--5-5-----5-5-|-7~--7-7--------------|
D|--------------|-----------------|----------------------|
A|-0--------0-2-|-3~-3----------3-|-5~-5-----------------|
E|--------------|-----------------|----------------------|
                    C                 Dadd2/9
e|----------<12>~~~~---|--------0-------|--------0-------|--------0-------|
B|-------<12>~~~~0-----|------0---0-----|------0---0-----|------0---0-----|
G|----<12>~~~~-----0---|----0-------0---|----0-------0---|----0-------0---|
D|---------------------|----------------|----------------|----------------|
A|---------------------|----------------|----------------|----------------|
E|-0-------------------|-0--------------|-0--------------|-0--------------|
   Em


e|------0----|------2----------------|
B|------8----|------3------1---------|
G|-----9-----|----2--------0---------|
D|----9------|--0--------2-----------|
A|---7-------|---------3-------------|
E|-0---------|-----------------------|

e|------0----|------2----------------|
B|------8----|------3------1---------|
G|-----9-----|----2--------0---------|
D|----9------|--0--------2-----------|
A|---7-------|---------3-------------|
E|-0---------|-----------------------|

e|------7----|----3h0-2------3h0--0--------3-------2h3-2----|
B|------8----|--------3-----------1--------0-------3---3----|
G|-----9-----|--------2-----------0--------0-------2---2----|
D|----9------|--0-----0-----------2--------0----0--0---0----|
A|---7-------|-------------3------3-----2--2----------------|
E|-0---------|--------------------0---3----3----------------|


e|--------0-------|--------0-------|
B|------0---0-----|------0---0-----|
G|----0-------0---|----0-------0---|
D|----------------|----------------|
A|----------------|----------------|
E|-0--------------|-0--------------|

Verse 1

e|--------3---0----2--3---0----------|
B|------0------0-------3----3--------|
G|----0-----0---0-------------0------|
D|-----------------0-----------------|
A|------------------------3----------|
E|-0-----------------------------3-2-|

e|--------3---0----2--------------------|-------3---0----2--3---3----------|
B|------0------0------3------3---3------|-----0------0-------3----3--------|
G|----0-----0---0--------2h----0--------|---0-----0---0-------------0------|
D|-----------------0--------------------|----------------0-----------------|
A|---------------------------3----------|-----------------------3----------|
E|-0--------------------------------3-2-|0---------------------------------|

e|------3---2--2---0------0------------0---------|
B|------3---0---0-------0---0--------0---0-------|
G|----0---------------0-------0----0-------------|    V1 X3
D|-----------------------------------------------|
A|----------2------------------------------------|
E|-3---------------0-------------0-----------3-2-|

When it gets to this^ part..., I use a pull of from '2' on 'e', it sounds better then
straight into a '0'.

Chorus

              Never Care For What They Do....
e|-0------0--|-2-2--2-2-2-0-2--2-2-2-|
B|-1------3--|-3-3--3-3-3-3-3--3-3-3-|
G|-0------3--|-3-2--2-2-2-2-2--2-2-2-|  X2
D|-2------3--|-0-0--0-0-0-0-0--0-0-0-|
A|-3------0--|-----------------------|
E|-0---------|-----------------------|

e|-0------0--|-2-2--2-2-2-0~|
B|-1------3--|-3-3--3-3-3-0~|
G|-0------3--|-3-2--2-2-2-0~|
D|-2------3--|-0-0--0-0-0-2~|
A|-3------0--|------------2~|
E|-0---------|------------0~|


Verse 2

e|--------3---0----2--3---0----------|
B|------0------0-------3----3--------|
G|----0-----0---0-------------0------|
D|-----------------0-----------------|
A|------------------------3----------|
E|-0-----------------------------3-2-|

e|--------3---0----2--------------------|-------3---0----2--3---3----------|
B|------0------0------3------3---3------|-----0------0-------3----3--------|
G|----0-----0---0--------2h----0--------|---0-----0---0-------------0------|
D|-----------------0--------------------|----------------0-----------------|
A|---------------------------3----------|-----------------------3----------|
E|-0--------------------------------3-2-|0---------------------------------|


Chorus


Interlude
|-12------14---|-15-------17---|-8------8------|-------8--------|
|---12------12-|---12-------12-|---5------5----|----5-----5-----|
|--------------|---------------|-----5------5--|-5----------5---|
|--------------|---------------|---------------|----------------|
|--------------|---------------|--------------0|----------------|
|--------------|---------------|---------------|----------------|

|-0--------0---|-0h2--------0--|-0--0~~~~0--0~~|--------0-------|
|----1-------1-|-----3-------3-|-12-12~~~12-12~|------0---0-----|
|-------0------|--------2------|---------------|----0-------0---|
|--------------|---------------|---------------|----------------|
|--------------|---------------|---------------|----------------|
|--------------|---------------|---------------|-0--------------|

|-12------14---|-15-------17---|-8-----8--------|-8-----8--------|
|-12-12---12-12|-12-12----12-12|---5-----5-----5|---5-----5------|
|--------------|---------------|-----5-----5-5--|-----5-----5----|
|--------------|---------------|----------------|----------------|
|--------------|---------------|----------------|----------------|
|--------------|---------------|----------------|----------------|

|-0--------0---|-0^2--------0--|-0--0~~~~0~~~~~|--------0---------|
|----1-------1-|-----3-------3-|-12-12~~~12~~~~|------0---0-------|
|-------2------|--------2------|---------------|----0-------------|
|--------------|---------------|---------------|------------------|
|--------------|---------------|---------------|------------------|
|--------------|---------------|---------------|-0------------3-2-|


Verse 3

e|--------3---0----2--3---0----------|
B|------0------0-------3----3--------|
G|----0-----0---0-------------0------|
D|-----------------0-----------------|
A|------------------------3----------|
E|-0-----------------------------3-2-|

e|--------3---0----2--------------------|-------3---0----2--3---3----------|
B|------0------0------3------3---3------|-----0------0-------3----3--------|
G|----0-----0---0--------2h----0--------|---0-----0---0-------------0------|
D|-----------------0--------------------|----------------0-----------------|
A|---------------------------3----------|-----------------------3----------|
E|-0--------------------------------3-2-|0---------------------------------|

e|--------3---0----2--3---0----------|
B|------0------0-------3----3--------|
G|----0-----0---0-------------0------|
D|-----------------0-----------------|
A|------------------------3----------|
E|-0-----------------------------3-2-|

e|--------3---0----2--------------------|-------3---0----2--3---3------------|
B|------0------0------3------3---3------|-----0------0-------3----3----------|
G|----0-----0---0--------2h----0--------|---0-----0---0-------------0--------|
D|-----------------0--------------------|----------------0-------------------|
A|---------------------------3----------|-----------------------3------------|
E|-0--------------------------------3-2-|0-----------------------------------|

Chorus (slightly Longer..., Listen to the song..., Same chords..., easy to figure out).


Solo

Eb---------------------------|-------------------------------------|
Bb-15------15----------------|-------------------------------------|
Gb-14(16)--14(16)14-12--14-12|-11-12-11----11-------------12-14-12-|
Db---------------------------|----------14----12-14----------------|
Ab---------------------------|-------------------------------------|
Eb---------------------------|-------------------------------------|
B B B
Eb-------12-------12---------------------------hold bend-->--------|
Gb----12-------12----15^14^12-(approx.8x )--15(17)-15-15-15--------|
Gb-14(16)---14(16)---------------------|---------------------------|
Db-------------------------------------|---------------------------|
Ab-------------------------------------|---------------------------|
Eb-------------------------------------|---------------------------|
release bend
Eb-15(17)--15---14-15-|----15-14----14-15-14-12|--------------------|
Bb--------------------|-12-------12------------|-15-14-12-----------|
Gb--------------------|------------------------|-----------12-14-12-|
Db--------------------|------------------------|--------------------|
Ab--------------------|------------------------|--------------------|
Eb--------------------|------------------------|--------------------|
B R B B R P B
Eb-------------------------|-12--------------------hold----->-------------|release
Bb----------------------12-|-------12-15(17)15--12^15(17)-15-15-15-15-15--|
Gb-14(16)14-12----12-14(16)|-------------------------------|--------------|
Db-------------14----------|-------------------------------|--------------|
Ab-------------------------|-------------------------------|--------------|
Eb-------------------------|-------------------------------|--------------|
H P S H P
Eb------------------------------------|
Bb-12^15^12~~~~~~\\\\\\7--5^7^5~~~~~~-|
Gb------------------------------------|
Db------------------------------------|
Ab------------------------------------|
Eb------------------------------------|


Outro

E-------0-----|-------0---7-|-7-----------7^0---------|
B-----0---0---|-----0---0---|---------0-------0-------|
G---0-------0-|---0---------|-----0---------------0---|
D-------------|-------------|-------------------------|
A-------------|-------------|-------------------------|
E-0-----------|-0-----------|-0-----------------------|

E---------7---8---7^8\5---7-5-/0--0--0-|
B---------0---0-----------0------------|
G-----0--------------------------------| repeat & Fade
D--------------------------------------|
A--------------------------------------|
E-0----------------------------------0-|
Tap to rate this tab
 
# A B C D E F G H I J K L M N O P Q R S T U V W X Y Z