Guitaretab - guitar tabs
Song name
# A B C D E F G H I J K L M N O P Q R S T U V W X Y Z

Metallica - Wherever I May Roam tab

this is the actual song. to figure out the rythm just listen to the song, but everything 
the way it should be.... the only thing that is not listed is the vibrato.

legend:
pm: palm mute
#/#: slide

e|-----------------------------------------------|
B|-----------------------------------------------|
G|-----------------------------------------------|       repeat 11 times
D|-----------------5-5/7----9--------------------|
A|-2---7-7h8-7-7---------h8-7---7-7h8-7-7-8-9-10-|
E|-0-0---------0-0----------0-0---------5-6-7-8--|
       pm        pm           pm


e|-------------------------------------------------|
B|-------------------------------------------------|
G|-------------------------------------------------|
D|-------------------5-5/7----9--------------------|
A|-0-1-2-3-7h8-7-7---------h8-7---7-7h8-7-7-8-9-10-|
E|---------------0-0----------0-0---------5-6-7-8--|
   pm|===|         pm           pm


e|------------------------------------------------|
B|------------------------------------------------|
G|---------0-----------------------0--------------|
D|---------2------------3--------2--------3-------|
A|-0-1-2-3-2----------3--------2--------3---------|
E|---------0--------1--------0--------1------3/10-|
   pm====|

e|------------------------0-0------------------------|
B|------------------------0-0------------------------|
G|-------3-----2-----3----1-1----------3-----5-----3-|
D|-------3-----2-----3----2-2----------3-----5-----3-|
A|-2-----1-----0-----1----2-2-----2----1-----3-----1-|
E|-0----------------------0-0-----0------------------|
                          pm=
e|-------------------------------------------------------|
B|-------------------------------------------------------|
G|-------------------------------------------------------|
D|-------------------------5-5/7----9--------------------|
A|-7-8-9-10-2---7-7h8-7-7--------h8-7---7-7h8-7-7-8-9-10-|
E|-5-6-7-8--0-0---------0-----------0-0---------5-6-7-8--|
            pm==|                  pm

e|-------------------------------------------------------------|
B|-------------------------------------------------------------|
G|-------------------------------------------------------------|
D|-3--3-------3-------3---2h3-2---2--2-------2-------2---2h3-2-|
A|-3--3-------3-------3-----------2--2-------2-------2---------|
E|-1--1---1-1-1---1-1-1-----------0--0---0-0-0---0-0-0---------|
         pm       pm=                    pm=     pm=

e|----------------------------------------|
B|----------------------------------------|
G|-3--3-------3-------3---2h3-2---2-------|
D|-3--3-------3-------3-----------2----5--|
A|-1--1---1-1-1---1-1-1-----------0----5--|
E|-------------------------------------3--|
          pm=     pm=

B|-----------------------------------------------|
G|-----------------------------------------------|
D|-----------------5-5/7----9--------------------|       repeat 2 times
A|-2---7-7h8-7-7---------h8-7---7-7h8-7-7-8-9-10-|
E|-0-0---------0-0----------0-0---------5-6-7-8--|
     pm          pm           pm

e|--------------------------------|
B|--------------------------------|
G|---------0----------------------|
D|---------2------------3---------|
A|-0-1-2-3-2----------3-----------|
E|---------0--------1--------3/10-|
   pm====|

e|------------------------0-0------------------------|
B|------------------------0-0------------------------|
G|-------3-----2-----3----1-1----------3-----5-----3-|
D|-------3-----2-----3----2-2----------3-----5-----3-|
A|-2-----1-----0-----1----2-2-----2----1-----3-----1-|
E|-0----------------------0-0-----0------------------|
                          pm=
[ Tab from: http://www.guitaretab.com/m/metallica/11929.html ]
e|---------------------------------------------------------|
B|---------------------------------------------------------|
G|---------------------------------------------------------|
D|--------------------------5-5/7----9---------------------|
A|-7-8-9-10-2---7-7h8-7-7--------h8--7---7-7h8-7-7-8-9-10--|
E|-5-6-7-8--0-0---------0-0----------0-0---------5-6-7-8---|
            pm==|         pm          pm
e|-------------------------------------------------------------|
B|-------------------------------------------------------------|
G|-------------------------------------------------------------|
D|-3--3-------3-------3---2h3-2---2--2-------2-------2---2h3-2-|
A|-3--3-------3-------3-----------2--2-------2-------2---------|
E|-1--1---1-1-1---1-1-1-----------0--0---0-0-0---0-0-0---------|
         pm       pm=                    pm=     pm=

e|----------------------------------------|
B|----------------------------------------|
G|-3--3-------3-------3---2h3-2---2-------|
D|-3--3-------3-------3-----------2----5--|
A|-1--1---1-1-1---1-1-1-----------0----5--|
E|-------------------------------------3--|
          pm=     pm=

e|---------------------------------------------------------|
B|---------------------------------------------------------|
G|------------------------9--------------------8-9-11/12-8-|
D|-------------6h7-6-9-10-------------6-7-9-10-------------|  repeat 2 times
A|-2---7-7h8-7--------------2-----7-8----------------------|
E|-0-0----------------------0-0-0--------------------------|

e|-------------------------------------------------------------|
B|-------------------------------------------------------------|
G|-------------------------------------------------------------|
D|-3--3-------3-------3---2h3-2---2--2-------2-------2---2h3-2-|
A|-3--3-------3-------3-----------2--2-------2-------2---------|
E|-1--1---1-1-1---1-1-1-----------0--0---0-0-0---0-0-0---------|
         pm       pm=                    pm=     pm=

e|----------------------------------------|
B|----------------------------------------|
G|-3--3-------3-------3---2h3-2---2-------|
D|-3--3-------3-------3-----------2----5--|
A|-1--1---1-1-1---1-1-1-----------0----5--|
E|-------------------------------------3--|
          pm=     pm=

i dont have the actual guitar solo but the rythem is the first part basically. just 
to the song during the solo and youll figure it out
but here is the outro....

e|-------------------------------------------------------------|
B|-------------------------------------------------------------|
G|-------------------------------------------------------------|
D|-3--3-------3-------3---2h3-2---2--2-------2-------2---2h3-2-|
A|-3--3-------3-------3-----------2--2-------2-------2---------|
E|-1--1---1-1-1---1-1-1-----------0--0---0-0-0---0-0-0---------|
         pm       pm=                    pm=     pm=

e|-------------------------------------------------|
B|-------------------------------------------------|
G|-3--3-------3-------3---2h3-2---2---------5----4-|
D|-3--3-------3-------3-----------2----5----5----4-|
A|-1--1---1-1-1---1-1-1-----------0----5----3----2-|
E|-------------------------------------3-----------|
          pm=     pm=

e|-----------------------------------------------|
B|-----------------------------------------------|
G|-----------------------------------------------|
D|-----------------5-5/7----9--------------------|
A|-2---7-7h8-7-7---------h8-7---7-7h8-7-7-8-9-10-|
E|-0-0---------0-0----------0-0---------5-6-7-8--|
     pm          pm           pm


e|-------------------------------------------------|
B|-------------------------------------------------|
G|-------------------------------------------------|
D|-------------------5-5/7----9--------------------|  repeat 11 times
A|-0-1-2-3-7h8-7-7---------h8-7---7-7h8-7-7-8-9-10-|
E|---------------0-0----------0-0---------5-6-7-8--|
   pm|===|         pm           pm

email if any questions: redhotman911@aol.com
Related for Wherever I May Roam tab
×
Best way to learn
"Wherever I May Roam"