Song name
# A B C D E F G H I J K L M N O P Q R S T U V W X Y Z

Metallica - 53rd And 3rd tab

53rd and 3rd - Metallica.
Tabbed by Moo!

This song came off the Ramones tribute CD, and its quite simple to play, and its catchy :) - Here goes.

Tuning - Standard; E,A,D,G,B,e.

e|---------------|--------------|
B|---------------|--------------|
G|---------------|--------------|
D|-------------2~|--7--7--------|
A|---------2-2-2~|--5--5--7--7--|
E|-0-0-0-0-0-0-0~|--------5--5--|x8

e|---------------------|---------------------|
B|---------------------|---------------------|
G|-7----7--------------|---------------------|
D|-7----7----7----7----|-5----5----7----7----|
A|-5----5----7----7----|-5----5----7----7----|
E|-----------5----5----|-3----3----5----5----|x4

e|---------------|--------------|
B|---------------|--------------|
G|---------------|--------------|
D|-------------2~|--7--7--------|
A|---------2-2-2~|--5--5--7--7--|
E|-0-0-0-0-0-0-0~|--------5--5--|x4

e|---------------------|---------------------|
B|---------------------|---------------------|
G|-7----7--------------|---------------------|
D|-7----7----7----7----|-5----5----7----7----|
A|-5----5----7----7----|-5----5----7----7----|
E|-----------5----5----|-3----3----5----5----|x4

e|------------------|---------------------|-----------------|-------------------|
B|*-----------------|---------------------|-----------------|------------------*|
G|------------------|-2----2----2----2----|-----------------|-2----2----2----2--|
D|--4-4-4-4-4-4-4-4-|-2----2----2----2----|-----------------|-2----2----2----2--|
A|*-2-2-2-2-2-2-2-2-|-0----0----0----0----|-5-5-5-5-5-5-5-5-|-0----0----0----0-*|
E|------------------|---------------------|-3-3-3-3-3-3-3-3-|-------------------|x2

e|---------------------|---------------------|
B|---------------------|---------------------|
G|-9----9--------------|-----------9----9----|
D|-9----9----9----9----|-7----7----9----9----|
A|-7----7----9----9----|-7----7----7----7----|
E|-----------7----7----|-5----5--------------|x4

e|---------------|--------------|
B|---------------|--------------|
G|---------------|--------------|
D|-------------2~|--7--7--------|
A|---------2-2-2~|--5--5--7--7--|
E|-0-0-0-0-0-0-0~|--------5--5--|x8

e|-----------|
B|-----------|
G|-----------|
D|---------2~|
A|---------2~|
E|-0-0-0-0-0~|

That is exactly in order.

Its simple to play, but the riffs are pretty catchy.

Enjoy from the cow :)

Mooo!
Tap to rate this tab
# A B C D E F G H I J K L M N O P Q R S T U V W X Y Z