Song name
# A B C D E F G H I J K L M N O P Q R S T U V W X Y Z

Metallica - In The Hall Of The Mountain King tab

Band- Metallica
Tuning- Standard

E--------------------------------------------------|
B--------------5---7----7----6---6---5---5---------|
G---4--6--7----------7---------6-------5-----------|
D--------------------------------------------------|
A--------------------------------------------------|
E--------------------------------------------------|

E------------------------------7---5---------5-----|
B--------------5---7----7------------7---7---------|
G---4--6--7----------7-----------------7-----------|
D--------------------------------------------------|
A--------------------------------------------------|
E--------------------------------------------------|

E--------------------------------------------------|
B--------------5---7----7----6---6---5---5---------|
G---4--6--7----------7---------6-------5-----------|
D--------------------------------------------------|
A--------------------------------------------------|
E--------------------------------------------------|

E-----------------------------7----------7---------|
B--------------5---7----7--------7---7-------------|
G---4--6--7----------7-------------7-------4-------|
D--------------------------------------------------|
A--------------------------------------------------|
E--------------------------------------------------|
Tap to rate this tab
# A B C D E F G H I J K L M N O P Q R S T U V W X Y Z