Song name
# A B C D E F G H I J K L M N O P Q R S T U V W X Y Z

Metallica - La Bamba tab

Help us improve GuitareTab! Take a short survey!
La Bamba
believe it or not
written by Los Lobos
it was performed live by Metallica
tab brought to you by native bro


e-----------------------3---3-------------------------|
B-------------------3-----3---3-------------------3---|
G---------------0-----0-----------------------0-----0-|
D-----------2-----2-----------------------2-----2-----|
A----0-2-3----3--------------------0-2-3----3---------|
E--3-----------------------------3--------------------|
intro

e--3-3-3--0-0-0-0--2-2--2-2-2-2-|
B--3-3-3--3-3-3-3--3-3--3-3-3-3-|
G--0-0-0--0-0-0-0--2-2--2-2-2-2-|
D--0-0-0--2-2-2-2--0-0--0-0-0-0-|
A--2-2-2--3-3-3-3---------------|
E--3-3-3--0-0-0-0---------------|
verse progression

e--2-2---------|
B--3-3---------|
G--2-2-------2-|
D--0-0--0-0--2-|
A-------2-2--0-|
E-------3-3----|
Related for La Bamba tab