Song name
# A B C D E F G H I J K L M N O P Q R S T U V W X Y Z

Metallica - Little Wing tab

Band: metallica
Album: Live shit binge& purge(seattle DVD)
Song: Little Wing
I don't have the time and patience to tab out the improve solo that kirk does on the 
I thought it was worth tab his version of "little wing". Other people have done it, but 
did it the best(I think).

  Clean
E----------------------------------------3h5-3----------------------|
B--x--12--------x--x---------------------3---3--3-------------------|
G--x--12--------x--x--------0-------------------4h5-4-5p4-----------|
D--x--12--------x--x----------------5h7-------------------5---------|
A---------------x--x-----0h2-----5h7--------------------------------|
E---------0-----------------------------3---------------------------|

E-------------------------------------------------------------------|
B--------------------------------------8h10-------------------------|
G---------5-----5h7p5------------------7------7h9p7-----------------|
D---------------------5-----------------------------7---------------|
A-----5h7----7-----------5h7-----------------7----------------------|
E--/5-------------------------5h7--0--------------------------------|

E----9h10--7h10-------------------------------5/7/5/3---------------|
B---------------------------------------------3/5/3/1--1------------|
G---------------------------------------------0-0-0-0--0------------|
D-----------------8---7-7h9p7p5---------------5/7/5/3--2------------|
A----------------8--------------8-7-5------------------3------------|
E--7------------6---5-----------------5-/7\3------------------------|

E-----------------------|
B-----------------------|
G--1--------------------|
D--2-----7----9-7-------|
A--2--3/5--5/7----9-----|
E--0--------------------|
 Dist. Harm.(bar dive)
E-------------------------------------------------------------------|
B------12//-----------15b~~~-15b17-15b17--13--13--12h13p12----------|
G------12//---------------------------------------------------------|
D------12//---------------------------------------------------------|
A------12//---------------------------------------------------------|
E-------------------------------------------------------------------|

E-------------------------------------------------------------------|
B--12-15-12--------------------------------12-13-12-13-12-13-12-----|
G---------------12-14b16--14v~~--14/16--14----------------------12--|
D------------14-----------------------------------------------------|
A-------------------------------------------------------------------|
E-------------------------------------------------------------------|

E--------------------------15-15--------13--------------------------|
B--15b17---15b17--12----------------------13--15b17-15b17~~~~-------|
G--------------------14b16~~~~~~~~---12-----------------------------|
D-------------------------------------------------------------------|
A-------------------------------------------------------------------|
E-------------------------------------------------------------------|
                                      harm. bar dive(repeat 1x)
E-------------------------------------------------------------------|
B--8---------8--------------------10--12----------------------------|
G--7h9p7-----7h9p7------------11--9---12----------------------------|
D--------10--------10--10/12--12------12----------------------------|
A-------------------------------------------------------------------|
E-------------------------------------------------------------------|

The rest is improv.
Tap to rate this tab
# A B C D E F G H I J K L M N O P Q R S T U V W X Y Z