Song name
# A B C D E F G H I J K L M N O P Q R S T U V W X Y Z

Metallica - Only Happy When It Rains tab

Metallica 

Only Happy When It Rains

Live, 2007; 10-27, Mountain View, CA


Tabed by AlexxxOnly

alex_in_flame@hotmail.com




h = hammer on
p = pull off

Intro Guitar 1
E-----------------|----------------|----------------|------------------|
B----------4------|---------4------|---------4------|-----------4---4--|
G------------6----|-----------6----|-----------6----|-----6-------6----|
D------6-------6--|-----6-------6--|-----6-------6--|-------6----------|
A---4-------------|----------------|----------------|--2---------------|
E-----------------|--4-------------|--5-------------|------------------|

E-----------------|----------------|-----------------|-----------------|
B----------4------|---------4------|----------4---4--|-----------4---4-|
G------------6----|-----------6----|-----6------6----|-----6-------6---|
D------6-------6--|-----6-------6--|-------6---------|-------6---------|
A---4-------------|----------------|-----------------|--2--------------|
E-----------------|--4-------------|--5--------------|-----------------|

E-----------------|----------------|-----------------|-----------------|
B----------4------|---------4------|----------4---4--|-----2-----------|
G------------6----|-----------6----|-----6------6----|----4------------|
D------6-------6--|-----6-------6--|-------6---------|---4-------------|
A---4-------------|----------------|-----------------|--2--------------|
E-----------------|--4-------------|--5--------------|-----------------|
 
Intro Guitar 2 
E--------------------------------------------------------------------|
B---7/9-------5--4~~----7/9-------4--2~~-----------------------------|
G--------------------------------------------------------------------|
D--------------------------------------------------------------------|
A--------------------------------------------------------------------|
E--------------------------------------------------------------------|

E--------------------------------------------------------------------|
B---7/9-------5--4~~----7/9-------4--2~~-----------------------------|
G--------------------------------------------------------------------|
D--------------------------------------------------------------------|
A--------------------------------------------------------------------|
E--------------------------------------------------------------------|


Vers 1 Guitar 1

E---4--4---4-4-4--|--2--2---2-2-2--|--0--0---0-0-0--|--4--4---4-4-4--|
B---4--4---4-4-4--|--2--2---2-2-2--|--0--0---0-0-0--|--5--5---5-5-5--|
G---4--4---4-4-4--|--3--3---3-3-3--|--1--1---1-1-1--|--6--6---6-6-6--|
D---6--6---6-6-6--|--4--4---4-4-4--|--2--2---2-2-2--|--6--6---6-6-6--|
A---6--6---6-6-6--|--4--4---4-4-4--|--2--2---2-2-2--|--4--4---4-4-4--|
E---4--4---4-4-4--|--2--2---2-2-2--|--0--0---0-0-0--|----------------|

E---0--0---0-0-0--|--2--2---2-2-2--|--4--4---4-4-4--|--2--2---2-2-2--|
B---0--0---0-0-0--|--2--2---2-2-2--|--4--4---4-4-4--|--2--2---2-2-2--|
G---1--1---1-1-1--|--3--3---3-3-3--|--4--4---4-4-4--|--3--3---3-3-3--|
D---2--2---2-2-2--|--4--4---4-4-4--|--6--6---6-6-6--|--4--4---4-4-4--|
A---2--2---2-2-2--|--4--4---4-4-4--|--6--6---6-6-6--|--4--4---4-4-4--|
E---0--0---0-0-0--|--2--2---2-2-2--|--4--4---4-4-4--|--2--2---2-2-2--|

E---0--0---0-0-0--|--4--4---4-4-4--|--0--0---0-0-0--|--2--2---2-2-2--|
B---0--0---0-0-0--|--5--5---5-5-5--|--0--0---0-0-0--|--2--2---2-2-2--|
G---1--1---1-1-1--|--6--6---6-6-6--|--1--1---1-1-1--|--3--3---3-3-3--|
D---2--2---2-2-2--|--6--6---6-6-6--|--2--2---2-2-2--|--4--4---4-4-4--|
A---2--2---2-2-2--|--4--4---4-4-4--|--2--2---2-2-2--|--4--4---4-4-4--|
E---0--0---0-0-0--|----------------|--0--0---0-0-0--|--2--2---2-2-2--|

E---7--7---7-7-7--|--7--7---7-7-7--|
B---7--7---7-7-7--|--7--7---7-7-7--|
G---8--8---8-8-8--|--8--8---8-8-8--|
D---9--9---9-9-9--|--9--9---9-9-9--|
A---9--9---9-9-9--|--9--9---9-9-9--|
E---7--7---7-7-7--|--7--7---7-7-7--|

Vers 1 Guitar 2

E----------------------|--------------------|
B----------------------|--------------------|
G---6/8-------4--3~~---|--6/8------3--1~~---|
D----------------------|--------------------|
A----------------------|--------------------|
E----------------------|--------------------|

E----------------------|--------------------|
B----------------------|--------------------|
G---7/9-------4--3~~---|--6/8------3--4~~---|
D----------------------|--------------------|
A----------------------|--------------------|
E----------------------|--------------------|

E----------------------|--------------------|
B----------------------|--------------------|
G---6/8-------4--3~~---|--6/8------3--1~~---|
D----------------------|--------------------|
A----------------------|--------------------|
E----------------------|--------------------|

E----------------------|--------------------|
B----------------------|--------------------|
G---7/9-------4--3~~---|--6/8------3--4~~---|
D----------------------|--------------------|
A----------------------|--------------------|
E----------------------|--------------------|

Chorus 1 Guitar 1

E-----------------|----------------|----------------|------------------|
B----------4------|---------4------|---------4------|-----------4---4--|
G------------6----|-----------6----|-----------6----|-----6-------6----|
D------6-------6--|-----6-------6--|-----6-------6--|-------6----------|
A---4-------------|----------------|----------------|--2---------------|
E-----------------|--4-------------|--5-------------|------------------|

E-----------------|----------------|-----------------|-----------------|
B----------4------|---------4------|----------4---4--|-----------4---4-|
G------------6----|-----------6----|-----6------6----|-----6-------6---|
D------6-------6--|-----6-------6--|-------6---------|-------6---------|
A---4-------------|----------------|-----------------|--2--------------|
E-----------------|--4-------------|--5--------------|-----------------|

E-----------------|----------------|-----------------|-----------------|
B----------4------|---------4------|----------4---4--|-----------4---4-|
G------------6----|-----------6----|-----6------6----|-----6-------6---|
D------6-------6--|-----6-------6--|-------6---------|-------6---------|
A---4-------------|----------------|-----------------|--2--------------|
E-----------------|--4-------------|--5--------------|-----------------|

E-----------------|----------------|-----------------|---------------------|
B----------4------|---------4------|----------4---4--|-----------4---4-----|
G------------6----|-----------6----|-----6------6----|-----6-------6---6---|
D------6-------6--|-----6-------6--|-------6---------|-------6-----------6-|
A---4-------------|----------------|-----------------|--2------------------|
E-----------------|--4-------------|--5--------------|---------------------|

E-----------------|
B------2----------|
G-----4-----------|
D----4------------|
A---2-------------|
E-----------------|

Chorus 1 Guitar 2

E---4--4---4-4-4--|--4--4---4-4-4--|--5--5---5-5-5--|----------------|
B---5--5---5-5-5--|--4--4---4-4-4--|--5--5---5-5-5--|--2--2---2-2-2--|
G---6--6---6-6-6--|--4--4---4-4-4--|--6--6---6-6-6--|--4--4---4-4-4--|
D---6--6---6-6-6--|--6--6---6-6-6--|--7--7---7-7-7--|--4--4---4-4-4--|
A---4--4---4-4-4--|--6--6---6-6-6--|--7--7---7-7-7--|--2--2---2-2-2--|
E-----------------|--4--4---4-4-4--|--5--5---5-5-5--|----------------|

E---4--4---4-4-4--|--4--4---4-4-4--|--5--5---5-5-5--|----------------|
B---5--5---5-5-5--|--4--4---4-4-4--|--5--5---5-5-5--|--2--2---2-2-2--|
G---6--6---6-6-6--|--4--4---4-4-4--|--6--6---6-6-6--|--4--4---4-4-4--|
D---6--6---6-6-6--|--6--6---6-6-6--|--7--7---7-7-7--|--4--4---4-4-4--|
A---4--4---4-4-4--|--6--6---6-6-6--|--7--7---7-7-7--|--2--2---2-2-2--|
E-----------------|--4--4---4-4-4--|--5--5---5-5-5--|----------------|

E---4--4---4-4-4--|--4--4---4-4-4--|--5--5---5-5-5--|----------------|
B---5--5---5-5-5--|--4--4---4-4-4--|--5--5---5-5-5--|--2--2---2-2-2--|
G---6--6---6-6-6--|--4--4---4-4-4--|--6--6---6-6-6--|--4--4---4-4-4--|
D---6--6---6-6-6--|--6--6---6-6-6--|--7--7---7-7-7--|--4--4---4-4-4--|
A---4--4---4-4-4--|--6--6---6-6-6--|--7--7---7-7-7--|--2--2---2-2-2--|
E-----------------|--4--4---4-4-4--|--5--5---5-5-5--|----------------|

E---4--4---4-4-4--|--4--4---4-4-4--|--5--5---5-5-5--|----------------|---------------|
B---5--5---5-5-5--|--4--4---4-4-4--|--5--5---5-5-5--|--2--2---2-2-2--|--2--2---2-2-2-|
G---6--6---6-6-6--|--4--4---4-4-4--|--6--6---6-6-6--|--4--4---4-4-4--|--4--4---4-4-4-|
D---6--6---6-6-6--|--6--6---6-6-6--|--7--7---7-7-7--|--4--4---4-4-4--|--4--4---4-4-4-|
A---4--4---4-4-4--|--6--6---6-6-6--|--7--7---7-7-7--|--2--2---2-2-2--|--2--2---2-2-2-|
E-----------------|--4--4---4-4-4--|--5--5---5-5-5--|----------------|---------------|


Bridge 1 Guitar 1

E---4--4---4-4-4--|--2--2---2-2-2--|--0--0---0-0-0--|--4--4---4-4-4--|
B---4--4---4-4-4--|--2--2---2-2-2--|--0--0---0-0-0--|--5--5---5-5-5--|
G---4--4---4-4-4--|--3--3---3-3-3--|--1--1---1-1-1--|--6--6---6-6-6--|
D---6--6---6-6-6--|--4--4---4-4-4--|--2--2---2-2-2--|--6--6---6-6-6--|
A---6--6---6-6-6--|--4--4---4-4-4--|--2--2---2-2-2--|--4--4---4-4-4--|
E---4--4---4-4-4--|--2--2---2-2-2--|--0--0---0-0-0--|----------------|

E---0--0---0-0-0--|--2--2---2-2-2--|----------------|----------------|
B---0--0---0-0-0--|--2--2---2-2-2--|--2--2---2-2-2--|--2--2---2-2-2--|
G---1--1---1-1-1--|--3--3---3-3-3--|--4--4---4-4-4--|--4--4---4-4-4--|
D---2--2---2-2-2--|--4--4---4-4-4--|--4--4---4-4-4--|--4--4---4-4-4--|
A---2--2---2-2-2--|--4--4---4-4-4--|--2--2---2-2-2--|--2--2---2-2-2--|
E---0--0---0-0-0--|--2--2---2-2-2--|----------------|----------------|


Bridge 1 Guitar 2

E----------------------|--------------------|
B----------------------|--------------------|
G---6/8-------4--3~~---|--6/8------3--1~~---|
D----------------------|--------------------|
A----------------------|--------------------|
E----------------------|--------------------|

E----------------------|--------------------|
B----------------------|--------------------|
G---7/9-------4--3~~---|--6/8------3--4~~---|
D----------------------|--------------------|
A----------------------|--------------------|
E----------------------|--------------------|


Solo Guitar 1

E---4--4---4-4-4--|--4--4---4-4-4--|--5--5---5-5-5--|----------------|
B---5--5---5-5-5--|--4--4---4-4-4--|--5--5---5-5-5--|--2--2---2-2-2--|
G---6--6---6-6-6--|--4--4---4-4-4--|--6--6---6-6-6--|--4--4---4-4-4--|
D---6--6---6-6-6--|--6--6---6-6-6--|--7--7---7-7-7--|--4--4---4-4-4--|
A---4--4---4-4-4--|--6--6---6-6-6--|--7--7---7-7-7--|--2--2---2-2-2--|
E-----------------|--4--4---4-4-4--|--5--5---5-5-5--|----------------|

E---4--4---4-4-4--|--4--4---4-4-4--|--5--5---5-5-5--|----------------|---------------|
B---5--5---5-5-5--|--4--4---4-4-4--|--5--5---5-5-5--|--2--2---2-2-2--|--2--2---2-2-2-|
G---6--6---6-6-6--|--4--4---4-4-4--|--6--6---6-6-6--|--4--4---4-4-4--|--4--4---4-4-4-|
D---6--6---6-6-6--|--6--6---6-6-6--|--7--7---7-7-7--|--4--4---4-4-4--|--4--4---4-4-4-|
A---4--4---4-4-4--|--6--6---6-6-6--|--7--7---7-7-7--|--2--2---2-2-2--|--2--2---2-2-2-|
E-----------------|--4--4---4-4-4--|--5--5---5-5-5--|----------------|---------------|


Solo Guitar 2

you can play this, but i don't think it's totaly correct.

E-------------------|------------------|------------------|------------------|
B---9-h-11-p-9------|--9-h-11-p-9------|--9-h-11-p-9------|--9-h-11-p-9------|
G---------------6~~-|--------------4~~-|--------------6~~-|--------------6~~-|
D-------------------|------------------|------------------|------------------|
A-------------------|------------------|------------------|------------------|
E-------------------|------------------|------------------|------------------|


E-------------------|------------------|------------------|------------------|
B---9-h-11-p-9------|--9-h-11-p-9------|--9-h-11-p-9------|--9-h-11-p-9------|
G---------------6~~-|--------------4~~-|--------------6~~-|--------------4~~-|
D-------------------|------------------|------------------|------------------|
A-------------------|------------------|------------------|------------------|
E-------------------|------------------|------------------|------------------|


Vers 2 Guitar 1

E---4--4---4-4-4--|--2--2---2-2-2--|--0--0---0-0-0--|--4--4---4-4-4--|
B---4--4---4-4-4--|--2--2---2-2-2--|--0--0---0-0-0--|--5--5---5-5-5--|
G---4--4---4-4-4--|--3--3---3-3-3--|--1--1---1-1-1--|--6--6---6-6-6--|
D---6--6---6-6-6--|--4--4---4-4-4--|--2--2---2-2-2--|--6--6---6-6-6--|
A---6--6---6-6-6--|--4--4---4-4-4--|--2--2---2-2-2--|--4--4---4-4-4--|
E---4--4---4-4-4--|--2--2---2-2-2--|--0--0---0-0-0--|----------------|

E---0--0---0-0-0--|--2--2---2-2-2--|--4--4---4-4-4--|--2--2---2-2-2--|
B---0--0---0-0-0--|--2--2---2-2-2--|--4--4---4-4-4--|--2--2---2-2-2--|
G---1--1---1-1-1--|--3--3---3-3-3--|--4--4---4-4-4--|--3--3---3-3-3--|
D---2--2---2-2-2--|--4--4---4-4-4--|--6--6---6-6-6--|--4--4---4-4-4--|
A---2--2---2-2-2--|--4--4---4-4-4--|--6--6---6-6-6--|--4--4---4-4-4--|
E---0--0---0-0-0--|--2--2---2-2-2--|--4--4---4-4-4--|--2--2---2-2-2--|

E---0--0---0-0-0--|--4--4---4-4-4--|--0--0---0-0-0--|--2--2---2-2-2--|
B---0--0---0-0-0--|--5--5---5-5-5--|--0--0---0-0-0--|--2--2---2-2-2--|
G---1--1---1-1-1--|--6--6---6-6-6--|--1--1---1-1-1--|--3--3---3-3-3--|
D---2--2---2-2-2--|--6--6---6-6-6--|--2--2---2-2-2--|--4--4---4-4-4--|
A---2--2---2-2-2--|--4--4---4-4-4--|--2--2---2-2-2--|--4--4---4-4-4--|
E---0--0---0-0-0--|----------------|--0--0---0-0-0--|--2--2---2-2-2--|

E---7--7---7-7-7--|--7--7---7-7-7--|
B---7--7---7-7-7--|--7--7---7-7-7--|
G---8--8---8-8-8--|--8--8---8-8-8--|
D---9--9---9-9-9--|--9--9---9-9-9--|
A---9--9---9-9-9--|--9--9---9-9-9--|
E---7--7---7-7-7--|--7--7---7-7-7--|


Vers 2 Guitar 2

E----------------------|--------------------|
B----------------------|--------------------|
G---6/8-------4--3~~---|--6/8------3--1~~---|
D----------------------|--------------------|
A----------------------|--------------------|
E----------------------|--------------------|

E----------------------|--------------------|
B----------------------|--------------------|
G---7/9-------4--3~~---|--6/8------3--4~~---|
D----------------------|--------------------|
A----------------------|--------------------|
E----------------------|--------------------|

E----------------------|--------------------|
B----------------------|--------------------|
G---6/8-------4--3~~---|--6/8------3--1~~---|
D----------------------|--------------------|
A----------------------|--------------------|
E----------------------|--------------------|

E----------------------|--------------------|
B----------------------|--------------------|
G---7/9-------4--3~~---|--6/8------3--4~~---|
D----------------------|--------------------|
A----------------------|--------------------|
E----------------------|--------------------|


Chorus 2 Guitar 1

E-----------------|----------------|----------------|------------------|
B----------4------|---------4------|---------4------|-----------4---4--|
G------------6----|-----------6----|-----------6----|-----6-------6----|
D------6-------6--|-----6-------6--|-----6-------6--|-------6----------|
A---4-------------|----------------|----------------|--2---------------|
E-----------------|--4-------------|--5-------------|------------------|

E-----------------|----------------|-----------------|-----------------|
B----------4------|---------4------|----------4---4--|-----------4---4-|
G------------6----|-----------6----|-----6------6----|-----6-------6---|
D------6-------6--|-----6-------6--|-------6---------|-------6---------|
A---4-------------|----------------|-----------------|--2--------------|
E-----------------|--4-------------|--5--------------|-----------------|

E-----------------|----------------|-----------------|-----------------|
B----------4------|---------4------|----------4---4--|-----------4---4-|
G------------6----|-----------6----|-----6------6----|-----6-------6---|
D------6-------6--|-----6-------6--|-------6---------|-------6---------|
A---4-------------|----------------|-----------------|--2--------------|
E-----------------|--4-------------|--5--------------|-----------------|

E-----------------|----------------|--5--5---5-5-5---|--5--5---5-5-5---|
B----------4------|---------4------|--5--5---5-5-5---|--5--5---5-5-5---|
G------------6----|-----------6----|--6--6---6-6-6---|--6--6---6-6-6---|
D------6-------6--|-----6-------6--|--7--7---7-7-7---|--7--7---7-7-7---|
A---4-------------|----------------|--7--7---7-7-7---|--7--7---7-7-7---|
E-----------------|--4-------------|--5--5---5-5-5---|--5--5---5-5-5---|

E-----------------|--2--2---2-2-2--|
B---2--2---2-2-2--|--2--2---2-2-2--|
G---4--4---4-4-4--|--3--3---3-3-3--|
D---4--4---4-4-4--|--4--4---4-4-4--|
A---2--2---2-2-2--|--4--4---4-4-4--|
E-----------------|--2--2---2-2-2--|



Chorus 2 Guitar 2

E---4--4---4-4-4--|--4--4---4-4-4--|--5--5---5-5-5--|----------------|
B---5--5---5-5-5--|--4--4---4-4-4--|--5--5---5-5-5--|--2--2---2-2-2--|
G---6--6---6-6-6--|--4--4---4-4-4--|--6--6---6-6-6--|--4--4---4-4-4--|
D---6--6---6-6-6--|--6--6---6-6-6--|--7--7---7-7-7--|--4--4---4-4-4--|
A---4--4---4-4-4--|--6--6---6-6-6--|--7--7---7-7-7--|--2--2---2-2-2--|
E-----------------|--4--4---4-4-4--|--5--5---5-5-5--|----------------|

E---4--4---4-4-4--|--4--4---4-4-4--|--5--5---5-5-5--|----------------|
B---5--5---5-5-5--|--4--4---4-4-4--|--5--5---5-5-5--|--2--2---2-2-2--|
G---6--6---6-6-6--|--4--4---4-4-4--|--6--6---6-6-6--|--4--4---4-4-4--|
D---6--6---6-6-6--|--6--6---6-6-6--|--7--7---7-7-7--|--4--4---4-4-4--|
A---4--4---4-4-4--|--6--6---6-6-6--|--7--7---7-7-7--|--2--2---2-2-2--|
E-----------------|--4--4---4-4-4--|--5--5---5-5-5--|----------------|

E---4--4---4-4-4--|--4--4---4-4-4--|--5--5---5-5-5--|----------------|
B---5--5---5-5-5--|--4--4---4-4-4--|--5--5---5-5-5--|--2--2---2-2-2--|
G---6--6---6-6-6--|--4--4---4-4-4--|--6--6---6-6-6--|--4--4---4-4-4--|
D---6--6---6-6-6--|--6--6---6-6-6--|--7--7---7-7-7--|--4--4---4-4-4--|
A---4--4---4-4-4--|--6--6---6-6-6--|--7--7---7-7-7--|--2--2---2-2-2--|
E-----------------|--4--4---4-4-4--|--5--5---5-5-5--|----------------|

E---4--4---4-4-4--|--4--4---4-4-4--|--5--5---5-5-5---|--5--5---5-5-5---|
B---5--5---5-5-5--|--4--4---4-4-4--|--5--5---5-5-5---|--5--5---5-5-5---|
G---6--6---6-6-6--|--4--4---4-4-4--|--6--6---6-6-6---|--6--6---6-6-6---|
D---6--6---6-6-6--|--6--6---6-6-6--|--7--7---7-7-7---|--7--7---7-7-7---|
A---4--4---4-4-4--|--6--6---6-6-6--|--7--7---7-7-7---|--7--7---7-7-7---|
E-----------------|--4--4---4-4-4--|--5--5---5-5-5---|--5--5---5-5-5---|

E-----------------|--2--2---2-2-2--|
B---2--2---2-2-2--|--2--2---2-2-2--|
G---4--4---4-4-4--|--3--3---3-3-3--|
D---4--4---4-4-4--|--4--4---4-4-4--|
A---2--2---2-2-2--|--4--4---4-4-4--|
E-----------------|--2--2---2-2-2--|



Bridge 2 Guitar 1

E---4--4---4-4-4--|--2--2---2-2-2--|--0--0---0-0-0--|--4--4---4-4-4--|
B---4--4---4-4-4--|--2--2---2-2-2--|--0--0---0-0-0--|--5--5---5-5-5--|
G---4--4---4-4-4--|--3--3---3-3-3--|--1--1---1-1-1--|--6--6---6-6-6--|
D---6--6---6-6-6--|--4--4---4-4-4--|--2--2---2-2-2--|--6--6---6-6-6--|
A---6--6---6-6-6--|--4--4---4-4-4--|--2--2---2-2-2--|--4--4---4-4-4--|
E---4--4---4-4-4--|--2--2---2-2-2--|--0--0---0-0-0--|----------------|

E---0--0---0-0-0--|--2--2---2-2-2--|
B---0--0---0-0-0--|--2--2---2-2-2--|
G---1--1---1-1-1--|--3--3---3-3-3--|
D---2--2---2-2-2--|--4--4---4-4-4--|
A---2--2---2-2-2--|--4--4---4-4-4--|
E---0--0---0-0-0--|--2--2---2-2-2--|


Bridge 2 Guitar 2

E----------------------|--------------------|
B----------------------|--------------------|
G---6/8-------4--3~~---|--6/8------3--1~~---|
D----------------------|--------------------|
A----------------------|--------------------|
E----------------------|--------------------|

E----------------------|--------------------|
B----------------------|--------------------|
G---7/9-------4--3~~---|--6/8------3--4~~---|
D----------------------|--------------------|
A----------------------|--------------------|
E----------------------|--------------------|


Outro/Vers 4 Guitar 1/2

Play this over and over again.

E---4--4---4-4-4--|--0--0---0-0-0--|--4--4---4-4-4--|
B---4--4---4-4-4--|--0--0---0-0-0--|--5--5---5-5-5--|
G---4--4---4-4-4--|--1--1---1-1-1--|--6--6---6-6-6--|
D---6--6---6-6-6--|--2--2---2-2-2--|--6--6---6-6-6--|
A---6--6---6-6-6--|--2--2---2-2-2--|--4--4---4-4-4--|
E---4--4---4-4-4--|--0--0---0-0-0--|----------------|

Tap to rate this tab
# A B C D E F G H I J K L M N O P Q R S T U V W X Y Z