Song name
# A B C D E F G H I J K L M N O P Q R S T U V W X Y Z

Metallica - Holier Than Thou tab

I would have Done the whole song BuT....I like the solo

Some time i'll try to get back to the rest of of song but i wont be able to this time... sorry

I didnt make a tab key for The God that Failed tab so I'll Make one here that goes with 
my tabs unless i have to put something else....

Key:

b=bend
p=pull off
h=hammer on
tm= tremelo
pm= palm mute
*=pinch harmonic
n=natural Harmonic
a=artificial harmonic
\=slide down(example) 1/12
/=slide up(example) 12\1
\#/=slide down all the way from the certain fret
X=Muffled note
bp=bend then pull off
bh=bend then hammer on
B=FULL BEND
<---------------------------------------------------------------------->

Black Album
Tuning:standard
                                                             ||
                                                             ||
                                     (do this one extra fast)\/
|------------------------------------------------------------------|
|--12b--------------10------------10--11---10bp8---10bp8----10bp8--|
|--12b---9~~~~~~~~~----12p9-12----9---10---------9-------9-------9-|
|------------------------------------------------------------------|
|------------------------------------------------------------------|
|------------------------------------------------------------------|


|--10B-----10~---------12--15p12-------15p12-15p12-------15p12-15p12-------|
|----------------\12/------------15p12-------------15p12-------------15p12-|
|--------------------------------------------------------------------------|
|--------------------------------------------------------------------------|
|--------------------------------------------------------------------------|
|--------------------------------------------------------------------------|


|-12------12~~~~15--12~~~~12---12-12-15p12-12-12-12-15p12---12--------------|
|---------------------------------------------------------15--15B--15B--\15/|
|---------------------------------------------------------------------------|
|---------------------------------------------------------------------------|
|---------------------------------------------------------------------------|
|---------------------------------------------------------------------------|


|-------------------------10--8---------------14bp12-14-12-14p12-----|
|-------8--10--11--8------------11-8-10-11-8----------------------15-|
|--\9/---------------------------------------------------------------|
|--------------------------------------------------------------------|
|--------------------------------------------------------------------|
|--------------------------------------------------------------------|

( Get Gradually faster towards the end)
|--12---------12-------12-------12-----12---12---12---12---12----12-12-|
|------15B--------15B------15B-----15B---15B--15B--15B--15B--15B-------|
|----------------------------------------------------------------------|
|----------------------------------------------------------------------|
|----------------------------------------------------------------------|
|----------------------------------------------------------------------|


|-12h15p12-------12h15p12-------12h15p12------12h15p12-------------|
|----------15p12----------15p12----------15p12---------15p12-------|
|------------------------------------------------------------------|
|------------------------------------------------------------------|
|------------------------------------------------------------------|
|------------------------------------------------------------------|


|-15p12-14-14-17p15-14-19p17p15--19B-----22B---\22/----------------|
|------------------------------------------------------------------|
|------------------------------------------------------------------|
|------------------------------------------------------------------|
|------------------------------------------------------------------|
|------------------------------------------------------------------|

THank you for reading my tab!
ENJOY!

MAN kirk Really had a thing for 12 and 15 well i wrote it i guess i do...

RATE OR COMMENT PLZ
Tap to rate this tab
# A B C D E F G H I J K L M N O P Q R S T U V W X Y Z