Song name
# A B C D E F G H I J K L M N O P Q R S T U V W X Y Z

Metallica - The Day That Never Comes tab

e|------------------------------------------------|
B|------------------------------------------------|
G|7----/9-----------------------------------------|
D|--------7-----7--/9-----5-----------------------|
A|------------------------------------------------|
E|------------------------------------------------|

e|------------------------------------------------|
B|------------------------------------------------|
G|7----/9-----------------------------------------|
D|--------7-----7--/9-----7-----------------------|
A|------------------------------------------------|
E|------------------------------------------------|

e|------------------------------------------------|
B|------------------------------------------------|
G|7----/9-----------------------------------------|
D|--------7-----7--/9-----5-----------------------|
A|------------------------------------------------|
E|------------------------------------------------|

e|------------------------------------------------|
B|------------------------------------------------|
G|7----/9-----------------------------------------|
D|--------7-----7--/9-----7-----------------------|
A|------------------------------------------------|
E|------------------------------------------------|

e|------------------------------------------------|
B|------------------------------------------------|
G|7----/9-----------------------------------------|
D|--------7-----7--/9-----5~----5-/7--7-/9--9-/10-|
A|------------------------------------------------|
E|------------------------------------------------|

e|-----------------------------------------------|
B|-----------------------------------------------|
G|-----------------------------------------------|
D|9-----5/7---7-9-9-10-10p7~----------5------7-7-|
A|-----------------------------------------------|
E|7----------------------------------------------|

e|--------------------------------------------------|
B|--------------------------------------------------|
G|--------------------------------------------------|
D|-------5-7-9---7-9-10---9-10-12---10---9h10-9~----|
A|--------------------------------------------------|
E|--------------------------------------------------|

e|------------------------------------------------------|
B|------------------------------------------------8--10-|
G|---------7---9---7--------7---9---10---9---10---------|
D|9---10---------------10-------------------------------|
A|------------------------------------------------------|
E|------------------------------------------------------|

Tap to rate this tab
 
# A B C D E F G H I J K L M N O P Q R S T U V W X Y Z