Song name
# A B C D E F G H I J K L M N O P Q R S T U V W X Y Z

Metallica - Welcome Home Sanitarium tab

      ()-natural harmonic
      /-slide down
      h-hammer on
      p-pull off
      ~-vibrato
    Standard Tuning-tabbed by Jake H.


e--(12)----3-3h5p3-2p0--(12)----2-2h3--3p2p0--(12)----(12)---|
b-----(12)-0--------------(12)--0---------------(12)----(12)-|
g------------------------------------------------------------|
d------------------------------------------------------------|
a------------------------------------------------------------|
E-0------------------0---------------------0---------0-------|

e---(7)------(12)(12)(12)--------|
b-----(7)---------------(12)-----|
g--------------------------(12)--|
d--------------------------------|
a--------------------------------|
E-0--------0---------------------|

e---------------------------------|
b---------------------------------|
g----0----0----0------------------|
d---4----5----7----0------0-----0-| (4x)riff 1
a--2----3----5----4------2--------|
E-0----0----0----5---5/3----3\5---|

solo 1

e--------------------10\12--15\17-17--15-15-12-12\14-12-14-12----12----12----|
b--------------10\12------------------------------------------15----15----12-|
g-----11-12-9~---------------------------------------------------------------|
d---9------------------------------------------------------------------------|
a-7--------------------------------------------------------------------------|
E----------------------------------------------------------------------------|

e----------------------------19-19---------17-17-15-14----------------------|
b--------------------------17-----17-------------------16-15-14-------------|
g-12/11------------------16---------16--14----------------------16-15-12b12-|
d-------12----12-12\14~-----------------------------------------------------|
a----------14---------------------------------------------------------------|
E---------------------------------------------------------------------------|

e------5---3-----5-|
b------------4\6---|
g---6----5---------|
d-7----------------|
a------------------|
E------------------|

    back to riff 1

    then

e----------------------------------------|
b----------------------------------------|
g-----4-4-----5-5-----7-7----------------| Repeat 2x
d-2-2-4-4-2-2-5-5-2-2-7-7--7-7-7-5-5-7-5-|
a-2-2-2-2-2-2-3-3-2-2-5-5--7-7-7-5-5-7-5-|
E-0-0-0-0-0-0-0-0-0-0-0-0--5-5-5-3-3-5-3-|

      Chorus

e---------------------------------------------|
b---------------------------------------------|
g---------------5/4----5-4--------------------|
d-2------5/4----5/4----5-4--0-2-0-------------|
a-2------5/4----3/2----3-2--------3-2-0-------|
E-0--0-0-3/2-0-0----0-0-----------------3-2-3-|

e--------------------------------------------|
b--------------------------------------------|
g---------------5/4----5-4-------------------|
d-2------5/4----5/4----5-4---------------3-2-|
a-2------5/4----3/2----3-2-2-2-2-2-2-2-0-3-2-|
E-0--0-0-3/2-0-0----0-0------------------1-0-|

         Not gonna tab the rest cause its late and i have school in the 
morning...hope this helps!!
Tap to rate this tab
# A B C D E F G H I J K L M N O P Q R S T U V W X Y Z