Song name
# A B C D E F G H I J K L M N O P Q R S T U V W X Y Z

Metallica - Jump In The Fire tab

e:-----------------|-----------------|-----------------|----------------|
B:-----------------|-----------------|-----------------|----------------|
G:-----------------|-----------------|-----------------|-x--5--x--3-----|
D:---------3-------|---------3-------|---------3-------|-x--5--x--3-----|
A:-----3-5---5-4-3-|-----3-5---5-4-3-|-----3-5---5-4-3-|-x--3--x--1-----|
E:-3-6-------------|-3-6-------------|-3-6-------------|----------------|
P.M.--               ---               ---              ---   ----------|
e:-----------------|-----------------|-----------------|----------------|
B:-----------------|-----------------|-----------------|----------------|
G:-----------------|-----------------|-----------------|-x--5--x--3-----|
D:---------3-------|---------3-------|-3-------3-------|-x--5--x--3-----|
A:-----3-5---5-4-3-|-----3-5---5-4-3-|---5-4-3---5-4-3-|-x--3--x--1-----|
E:-3-6-------------|-3-6-------------|-----------------|----------------|
P.M.--               ---                                ---   ----------|
e:-----------------|-----------------|-----------------|----------------|
B:-----------------|-----------------|-----------------|----------------|
G:-----------------|-----------------|-----------------|----------------|
D:---------3-------|---------3-------|-3p5---3---------|---------3-5~---|
A:-----3-5---5-4-3-|-----3-5---5-4-3-|-----5---5-4-3---|-----3-5--------|
E:-3-6-------------|-3-6-------------|-----------------|-3-6------------|
P.M.--               ---                                 ---------------|
e:-----------------|-----------------|-----------------|----------------|
B:-----------------|-----------------|-----------------|----------------|
G:-----------------|-----------------|-----------------|-x--5--x--3-----|
D:---------3-------|---------3-------|-3-------3-------|-x--5--x--3-----|
A:-----3-5---5-4-3-|-----3-5---5-4-3-|---5-4-3---5-4-3-|-x--3--x--1-----|
E:-3-6-------------|-3-6-------------|-----------------|----------------|
P.M.--               ---                                ---   ----------|
e:----------------|----------|----------------|-------------------------|
B:----------------|----------|----------------|-------------------------|
G:--------------3-|----------|--------------5-|-x-x-x--6----------------|
D:--------------3-|--3--3--3-|--------------5-|-x-x-x--6----------------|
A:--------------1-|--3--3--3-|--------------3-|-x-x-x--4----------------|
E:-1-3-3-1-3-0----|--1--1--1-|-1-3-3-1-3-0----|-------------------------|
P.M.----------                 -----------      ------------------------|

e:------------------------3-------------------------------------------|
B:--------------------------6p3-1-3-6p3-1-3-6p3-1-3-6p3---------6b8~--|
G:------------------5b7b5-------------------------------5-3-0-3-------|
D:--------------------------------------------------------------------|
A:--------------------------------------------------------------------|
E:--------------------------------------------------------------------|
 Solo:
e:|-----------------|-----------------|----------------|--------------|
B:|-----------------|-----------------|----------------|--------------|
G:|-----------------|-----------------|----------------|--------------|
D:|--8-8-8-8-8--8-8-|-8-8-8--6--8-----|-5-5-5-5-5--5-5-|-5-5-5--3--5--|
A:|--8-8-8-8-8--8-8-|-8-8-8--6--8-----|-5-5-5-5-5--5-5-|-5-5-5--3--5--|
E:|--6-6-6-6-6--6-6-|-6-6-6--4--6-(0)-|-3-3-3-3-3--3-3-|-3-3-3--1--3--|

e:|-----------------------------------------------------------------|
B:|-----------------------------------------------------------------|
G:|-----------------------------------------------------------------|
D:|-----------------------------------------------------------------|
A:|-1-1-1-1-1-1-1-1-1-1-1-1-1-1-1-1---------------------------------|
E:|---------------------------------3-3-3-3-3-3-3-3-3-3-3-3-3-3-3-3-|

e:|--------------------------------------------------------------------------|
B:|--------------------------------------------------------------------------|
G:|--------------------------------------------------------------------------|
D:|--------------------------------------------------------------------------|
A:|-1-1-1-1/12-1-1-1-1-1-1/12-1-1-1-1-1-1/12---------------------------------|
E:|------------------------------------------3-3-3-3-3-3-3-3-3-3-3-3-3-3-3-3-|

e:|---------------------------|---3-------------|-----3---------------|
B:|--6p3p0-------6p3p0--------|-3-3---------6-3-|---3-3-6-------3-----|
G:|*-------5p3p0-------5p3p0-*|-----------------|-5---------------5b--|
D:|*-------------------------*|-----------------|---------------------|
A:|---------------------------|-----------------|---------------------|
E:|---------------------------|-----------------|---------------------|


e:-3------------------|--------15--------------------------|-------------------|
B:---6p3--------------|-----15----18p15--------------------|-------------------|
G:-------5-5p3---3/15-|-17b-------------17p15-17p15----15\-|---3b%---15---3b%--|
D:-------------5------|-----------------------------17-----|---3b%---15---3b%--|
A:--------------------|------------------------------------|-0-----0----0------|
E:--------------------|------------------------------------|-------------------|

e:----------------------|-------------------------------|------------------------|
B:----------------0-----|-----3-6p3---3-6p3---3-6p3-----|-6p3--------------------|
G:-(3)---15--15\--0--5b-|-(5)-------5-------5-------5\4-|-----5-3---3-5-5b7b5p3--|
D:-(3)---15--15\--0-----|-------------------------------|---------5--------------|
A:-----0----------------|-------------------------------|------------------------|
E:----------------------|-------------------------------|------------------------|

e:--------------------|------------------------------|-------------------------------|
B:--------------------|------------------------------|-17b18b17--15-----15-17b18b17--|
G:---3-5p3------------|------------------------------|-17b19b17--15-----15-17b19b17--|
D:-5-------5-3--------|------------------------------|---------------17--------------|
A:--------------5-3-1-|-3b5b3--1-----1---------------|-------------------------------|
E:--------------------|-----------3-----(3)/15--(12)-|-------------------------------|

e:---------------------------|--------15----------------|-----------------------|
B:-15----15--17b18b17--15----|-----------18p15----------|-----------------18b~--|
G:-15----15--17b19b17--15----|-15-17b----------17-15----|-15-17b-(17)p15--------|
D:----17------------------17-|-----------------------17-|-----------------------|
A:---------------------------|--------------------------|-----------------------|
E:---------------------------|--------------------------|-----------------------|


OUTRO:

e:---------------------------------------------------|--------------------------18p15-|
B:---------------------------------------------------|-----------------15-18p15-------|
G:----------------------------------------15-(15)h17-|-17p15----15-17b----------------|
D:-------------------15-15-17p15----15-17------------|-------17-----------------------|
A:-------13-13-15/17-------------17------------------|--------------------------------|
E:-13h15---------------------------------------------|--------------------------------|

e:--------------------|-18p15--------------------18p15--------------------|-----------|
B:-18p15-----15-18p15-|-------18p15-----15-18p15-------18p15-----15-15-18-|-18p15-----|
G:-------17b----------|-------------17b----------------------17b----------|-------17--|
D:--------------------|---------------------------------------------------|-----------|
A:--------------------|---------------------------------------------------|-----------|
E:--------------------|---------------------------------------------------|-----------|

e:-------------------|-----------------18b----18b-|-18b(18)p15----15-------------15--|
B:-------------------|-18b--18b(18)p15------------|------------18----18b----18b------|
G:-15----15-17b------|----------------------------|----------------------------------|
D:----17-----------0-|----------------------------|----------------------------------|
A:-------------------|----------------------------|----------------------------------|
E:-------------------|----------------------------|----------------------------------|

                                                             ~~~~~~~~
e:-18p15----15-18p15-------------------------|----------------------------|-----------|
B:-------18----------18p15-18p15-------------|----18------18-------18--15-|-18b-------|
G:-------------------------------17-15----15-|-15-17b-----17b~-----17-----|-----------|
D:-------------------------------------17----|----------------------------|-----------|
A:-------------------------------------------|----------------------------|-----------|
E:-------------------------------------------|----------------------------|-----------|


e:----------------------------|---------------------------------|---------------------|
B:-18b(18)p15-----------------|---------------------------------|-----15-18p15--------|
G:------------17-15----15-17b-|-(17)p15----15-17b-15b(15)----15-|-17b----------17-15--|
D:------------------17--------|---------17----------------17----|---------------------|
A:----------------------------|---------------------------------|---------------------|
E:----------------------------|---------------------------------|---------------------|


e:-----------|---------------------------------|---------------------------------------|
B:-----------|---------------------------------|-----15-18p15-18p15-----15-18p15-18p15-|
G:----15-17b-|-(17)p15----15-17b-15b(15)----15-|-17b----------------17b----------------|
D:-17--------|---------17----------------17----|---------------------------------------|
A:-----------|---------------------------------|---------------------------------------|
E:-----------|---------------------------------|---------------------------------------|


e:--------|--------------------------------------------------|-------------------------|
B:-----15-|-18p15-18p15-----15-18p15-18p15----15-18p15----15-|-18p15----15-18p15-18p15-|
G:-17b----|-------------17b----------------17----------17----|-------17----------------|
D:--------|--------------------------------------------------|-------------------------|
A:--------|--------------------------------------------------|-------------------------|
E:--------|--------------------------------------------------|-------------------------|

e:------------------------------|--------------------------------------------(0)--15--|
B:----15-18p15-(15)h18p15----15-|-18p15-(15)h18p15-15h18p15-(15)h18p15-18b------------|
G:-17---------------------17----|-----------------------------------------------------|
D:------------------------------|-----------------------------------------------------|
A:------------------------------|-----------------------------------------------------|
E:------------------------------|-----------------------------------------------------|

                                                  x4
e:|-17-15-15-15-18-15-15-15-20-15-15-15-18-15-15-15-|-17-15-15-15-18-15-15-15-20-15-15-|
B:|-------------------------------------------------|----------------------------------|
G:|*-----------------------------------------------*|----------------------------------|
D:|*-----------------------------------------------*|----------------------------------|
A:|-------------------------------------------------|----------------------------------|
E:|-------------------------------------------------|----------------------------------|

                                                                  x3
e:-15-22-15-15-15-|-20-15-15-15-18-15-15-15-17-15-15-15-18-15-15-15-|-18p15------18p15-|
B:----------------|-------------------------------------------------|-------18p15------|
G:----------------|*-----------------------------------------------*|------------------|
D:----------------|*-----------------------------------------------*|------------------|
A:----------------|-------------------------------------------------|------------------|
E:----------------|-------------------------------------------------|------------------|

e:-(15)h18p15----15-18p15-18p15----15-|-18p15-18p15----15-18p15-18p15----15-18p15-18-|
B:------------18----------------18----|-------------18----------------18-------------|
G:------------------------------------|----------------------------------------------|
D:------------------------------------|----------------------------------------------|
A:------------------------------------|----------------------------------------------|
E:------------------------------------|----------------------------------------------|

e:-18b----18b----18p15----15-18b-|-(18)p15----15-18----18b----18b(18)-----15-|-18p15--|
B:---------------------18--------|---------18--------------------------------|--------|
G:-------------------------------|-------------------------------------------|--------|
D:-------------------------------|-------------------------------------------|--------|
A:-------------------------------|-------------------------------------------|--------|
E:-------------------------------|-------------------------------------------|--------|

e:----15-------------------------|----------------------------------|-----------------|
B:-18----18-15-18p15----15-------|----------------------------------|-----------------|
G:-------------------17----17-15-|-17p15----15----15-17--17b(17)p15-|----15-17p15-----|
D:-------------------------------|-------17----17-------------------|-17----------17--|
A:-------------------------------|----------------------------------|-----------------|
E:-------------------------------|----------------------------------|-----------------|

e:----------|-------------------------|----------------------------|-------------------|
B:----------|-17b(17)b(17)b-----------|----------------------------|-------------------|
G:-15-17-15-|-17b(17)b(17)b----17--15-|-17p15----------------------|-------------------|
D:----------|-------------------------|-------17-15----------------|-------------------|
A:----------|-------------------------|-------------17-15-13-15-13-|-15b(15)p13----13~-|
E:----------|-------------------------|----------------------------|------------15-----|

e:--------|------------------------------|----------------------------|----------------|
B:--------|------------------------------|----------------------------|------18-----18-|
G:--------|-------------15-17-17b(17)p15-|-17-15-----15~-------15-17b-|-(17)----17b----|
D:--------|-------15-17------------------|--------17--------17--------|----------------|
A:-----13-|-15/17------------------------|----------------------------|----------------|
E:--15----|------------------------------|----------------------------|----------------|

							(fade out)
e:----------------------------------------|---------------------------|
B:-----18--18--(18)---(18)---(18)---(18)--|--(18)---------------------|
G:-17b-----17b-(17)b--(17)b--(17)b--(17)b-|--(17)---------------------|
D:----------------------------------------|---------------------------|
A:----------------------------------------|---------------------------|
E:----------------------------------------|---------------------------|
Tap to rate this tab
 
# A B C D E F G H I J K L M N O P Q R S T U V W X Y Z