Song name
# A B C D E F G H I J K L M N O P Q R S T U V W X Y Z

Metallica - Ride The Lightning tab

                      This is Ride The Lightning by
                        Metallica,I hope you find
                          this useful in anyway
                            Tuning - Standard



This tab is different
From the others I
Will add the Harmonies
Later on this is 98% Correct


Things to know!

x - Dead note
~ - Let ring
h - Hammer on
p - Pull off
b - bend
/ - slide
\ - slide
T - Tapp
w - whammy



Intro
|----------------------------------------------|-
|-----12-13~--------12~------------------------|--
|---------------14------------11~----12--------|---
|--------------------------14-----------14~----|---- x 4
|----------------------------------------------|---
|--x---------x----------x---------x------------|-

slide
|-------------|-
|-------------|--
|-------------|---
|-------------|---- x 1
|--7\---------|---
|--7\---------|-

slide riff
|-----------------------------|-
|-----------------------------|--
|-----------------------------|---
|-----------------------------|---- x 12
|--7/8-------7/8--------------|---
|--5/6--0-0--5/6--0-0-0-0-----|-

riff
|-----------------------------|-
|-----------------------------|--
|-----------------------------|---
|--------2---5----------------|---- x 4
|--4-2-4-0-4-3----------------|---
|--2-0-2---2------------------|-

pre
|----------------|-
|----------------|--
|----------------|---
|-----5-4--------|---- x 1
|--4--3-2--------|---
|--2-------------|-


slide riff
|-----------------------------|-
|-----------------------------|--
|-----------------------------|---
|-----------------------------|---- x 3
|--7/8-------7/8--------------|---
|--5/6--0-0--5/6--0-0-0-0-----|-

|-----------------------------|-
|-----------------------------|--
|-----------------------------|---
|-----------------------------|---- x 1
|--7/8-------7/8-------10-9---|---
|--5/6--0-0--5/6--0-0---8-7---|-


slide riff
|-----------------------------|-
|-----------------------------|--
|-----------------------------|---
|-----------------------------|---- x 3
|--7/8-------7/8--------------|---
|--5/6--0-0--5/6--0-0-0-0-----|-

|-----------------------------|-
|-----------------------------|--
|-----------------------------|---
|-----------------------------|---- x 1
|--7/8-------7/8-------10-9---|---
|--5/6--0-0--5/6--0-0---8-7---|-


riff
|---------------------------|-
|---------------------------|--
|---------------------------|---
|---------------------------|---- x 4
|--2h4------2h4-------------|---
|--2----2-2-2----2-2-2-2----|-


riff
|--------------------------------|-
|--------------------------------|--
|--------------------------------|---
|--6-----5-4-----6---22222222----|---- x 1
|--4-----3-2-----4---00000000----|---
|-----x-------x------------------|-

|-------------------------------------|-
|-------------------------------------|--
|-------------------------------------|---
|--6-----5-4-----6---22222222---------|---- x 1
|--4-----3-2-----4---00000000--2-2----|---
|-----x-------x-----------------------|-


riff
|---------------------------|-
|---------------------------|--
|---------------------------|---
|---------------------------|---- x 2
|--2h4------2h4-------------|---
|--2----2-2-2----2-2-2-2----|-


riff
|--------------------------------|-
|--------------------------------|--
|--------------------------------|---
|--6-----5-4-----6---22222222----|---- x 2
|--4-----3-2-----4---00000000----|---
|-----x-------x------------------|-


riff
|-----------------------------|-
|-----------------------------|--
|-----------------------------|---
|--------2---5----------------|---- x 4
|--4-2-4-0-4-3----------------|---
|--2-0-2---2------------------|-


slide riff
|-----------------------------|-
|-----------------------------|--
|-----------------------------|---
|-----------------------------|---- x 3
|--7/8-------7/8--------------|---
|--5/6--0-0--5/6--0-0-0-0-----|-

|-----------------------------|-
|-----------------------------|--
|-----------------------------|---
|-----------------------------|---- x 1
|--7/8-------7/8-------10-9---|---
|--5/6--0-0--5/6--0-0---8-7---|-


slide riff
|-----------------------------|-
|-----------------------------|--
|-----------------------------|---
|-----------------------------|---- x 3
|--7/8-------7/8--------------|---
|--5/6--0-0--5/6--0-0-0-0-----|-

|-----------------------------|-
|-----------------------------|--
|-----------------------------|---
|-----------------------------|---- x 1
|--7/8-------7/8-------10-9---|---
|--5/6--0-0--5/6--0-0---8-7---|-


riff
|---------------------------|-
|---------------------------|--
|---------------------------|---
|---------------------------|---- x 4
|--2h4------2h4-------------|---
|--2----2-2-2----2-2-2-2----|-


riff
|--------------------------------|-
|--------------------------------|--
|--------------------------------|---
|--6-----5-4-----6---22222222----|---- x 1
|--4-----3-2-----4---00000000----|---
|-----x-------x------------------|-

|-------------------------------------|-
|-------------------------------------|--
|-------------------------------------|---
|--6-----5-4-----6---22222222---------|---- x 1
|--4-----3-2-----4---00000000--2-2----|---
|-----x-------x-----------------------|-


riff
|---------------------------|-
|---------------------------|--
|---------------------------|---
|---------------------------|---- x 2
|--2h4------2h4-------------|---
|--2----2-2-2----2-2-2-2----|-


riff
|--------------------------------|-
|--------------------------------|--
|--------------------------------|---
|--6-----5-4-----6---22222222----|---- x 2
|--4-----3-2-----4---00000000----|---
|-----x-------x------------------|-


Sweet riff
|---------------------------------------------|-
|---------------------------------------------|--
|---------------------------------------------|---
|--9-8-7----6----5-----------5--------5-------|---- x 4
|--7-6-5----4----3-----------5--------5-------|---
|---------6----5----4---0000---000000---00----|-


Then This.
|------------------------------------------------------|-
|------------------------------------------------------|--
|------------------------------------------------------|---
|---------10------------10-----------9--------9--------|---- x 1
|---------10------------10-----------9--------9--------|---
|--8-8-8-8-8-8-8-8-8-8-8-8-8-8--7777-7-777777-7-77-----|-

|------------------------------------------------------|-
|------------------------------------------------------|--
|------------------------------------------------------|---
|-------8--------8----------7--------7-----------------|---- x 1
|-------8--------8----------7--------7-----------------|---
|--6666-6-666666-6-66--5555-5-555555-5-55--------------|-

|------------------------------------------------------|-
|------------------------------------------------------|--
|------------------------------------------------------|---
|-------3--------3----------5--------5----------8------|---- x 1
|-------3--------3----------5--------5----------8------|---
|--1111-1-111111-1-11--3333-3-333333-3-33--6666-6-66---|-


Sweet riff
|---------------------------------------------|-
|---------------------------------------------|--
|---------------------------------------------|---
|--9-8-7----6----5-----------5--------5-------|---- x 3
|--7-6-5----4----3-----------5--------5-------|---
|---------6----5----4---0000---000000---00----|-

|--------------------------|-
|--------------------------|--
|------------5~--4~--------|---
|--9-8-7-----5~--4~--------|---- x 1
|--7-6-5-----3~--2~--------|---
|---------6----------------|-


Pre solo
|-----------------------------|-
|-----------------------------|--
|-----------5~----------------|---
|-----------5~-------5/7-7~---|---- x 2
|--2~-------3~-------5/7-7~---|---
|--0~--0-2------0h2--3/5-5~---|-


Solo Tap

    T      T
|---------------------|-
|---------------------|--
|--12p5h9-12p5h9------|---
|---------------------|---- x 13
|---------------------|---
|---------------------|-


|-----------------------------------------------|
|--10~-10b-10b-10-8-7~-7-8-7h8p7----------------|
|--------------------------------9-7---7-7-9~---|
|------------------------------------9----------|
|-----------------------------------------------|
|-----------------------------------------------|

|----------------------------------------------|
|------5--5/-7--7--7-/8--8--8/-10-10-10-10\8---|
|----------------------------------------------|
|------2--2/-4--4--4-/5--5--5/-7--7--7--7-\5---|
|--7\------------------------------------------|
|--7\------------------------------------------|

|--------------------------------------------------------------|
|-8-/10-10/-12---12-\10--10-/12--12/-13--13/--15--15/-17--17---|
|--------------------------------------------------------------|
|-5-/7---7/--9---9--\7---7--/9---9/--10--10/--12--12/-14--14---|
|--------------------------------------------------------------|
|--------------------------------------------------------------|

|----------------------------------------------------14-19-17b---|
|------------15-17b-17p15-17-15----15~-----15-17-17b-------------|
|--12-14-16~--------------------16------16-----------------------|
|----------------------------------------------------------------|
|----------------------------------------------------------------|
|----------------------------------------------------------------|

|--17p14-22b--22-19-22-19----19----------|
|-------------------------22----22b------|
|----------------------------------------|
|----------------------------------------|
|----------------------------------------|
|----------------------------------------|

|--14h17p14----14h17p14-------------------17p14-------------|
|-----------17----------17-14----14h17p14-------17-14-------|
|-----------------------------16----------------------16----|
|-----------------------------------------------------------|
|-----------------------------------------------------------|
|-----------------------------------------------------------|

|----------------------------------------------------------------|
|--14h17p14------------------------------------------------------|
|-----------16p14-16p14-16p14------------------------------------|
|-----------------------------16-14----14h16p14------------------|
|-----------------------------------16----------16p14----14-14---|
|-----------------------------------------------------17---------|

|---------------------------------------------------------|
|--------------------------------------------------14~----|
|-----------------------14h16-16p14----14h16-14h16--------|
|-----------------14h16-------------16--------------------|
|-----------14h15-----------------------------------------|
|--17p14h17-----------------------------------------------|

Come on
|--17b-17b-17b-17~-17-14----14h17p14--------------------------------|
|------------------------17----------17-141414-17p14----------------|
|----------------------------------------------------16p14----------|
|----------------------------------------------------------14-14----|
|-------------------------------------------------------------------|
|-------------------------------------------------------------------|

|-----------------14-17p14-----|
|--------------17--------------|
|--16b-14b---------------------|
|----------16~-----------------|
|------------------------------|
|------------------------------|

|-----14-17-19-17p14-----14-17-19p14-17p14-------|-
|--17-----------------17-------------------------|--
|------------------------------------------------|---
|------------------------------------------------|---- x 2
|------------------------------------------------|---
|------------------------------------------------|-

|-----14-----------------------------------------------------|
|--17----17p14-17p14----14-----------------------------------|
|--------------------16----16p14-16p14----14h16--------------|
|--------------------------------------16-------14-14-16~----|
|------------------------------------------------------------|
|------------------------------------------------------------|

Oh My
|-------------------------------------14h15p14-------------------|
|--------14-15--14h15p14----14-15--17----------17-15-14-15-17----|
|--14-16-----------------16--------------------------------------|
|----------------------------------------------------------------|
|----------------------------------------------------------------|
|----------------------------------------------------------------|

|-----------------19----19-20-19-20-22b-22b-22b----|
|--19-20-22-20-22----22----------------------------|
|--------------------------------------------------|
|--------------------------------------------------|
|--------------------------------------------------|
|--------------------------------------------------|

|--12-14-16-14-12-14-12----14-12-------------------12----------------|
|-----------------------15-------15-12-15-13-12-13----15-12-15-13----|
|--------------------------------------------------------------------|
|--------------------------------------------------------------------|
|--------------------------------------------------------------------|
|--------------------------------------------------------------------|

|---------------------------------|
|-----13-12-------12--------------|
|--14-------14-12----14-12--0w----|
|---------------------------------|
|---------------------------------|
|---------------------------------|


|--12b-12b-12b-12b-12b-12b-12b-12b----|
|-------------------------------------|
|-------------------------------------|
|-------------------------------------|
|-------------------------------------|
|-------------------------------------|

|--15p12-14p12----12-------------------------------------|
|--------------15----15p14p12-14p12----------------------|
|-----------------------------------14p12----12-14p12----|
|-----------------------------------------14-------------|
|--------------------------------------------------------|
|--------------------------------------------------------|

|---------------------11-----------------11--------------------|
|--14b-14b-14b-----12----14-12--------------14-12--------------|
|--14b-14b-14b--13-------------14-13--------------14-13--------|
|------------------------------------11-----------------11-----|
|--------------------------------------------------------------|
|--------------------------------------------------------------|

|--12-11--------------12-11-----------------|
|--------14-12--------------14-12-----------|
|--------------14-13--------------14-13-----|
|-------------------------------------------|
|-------------------------------------------|
|-------------------------------------------|

Tired yet ha
|--14-12-11-----------16-14-12-----------17-16-14-----------22b---|
|-----------14-12--------------16-14-12-----------17-16-14--------|
|-----------------14----------------------------------------------|
|-----------------------------------------------------------------|
|-----------------------------------------------------------------|
|-----------------------------------------------------------------|

|-----8-12p8----8-12p8----8-12p8----8-12p8----7----|
|--10--------10--------10--------10--------10------|
|--------------------------------------------------|
|--------------------------------------------------|
|--------------------------------------------------|
|--------------------------------------------------|

|--10p7---7-10p7---7-10p7---7-10p7----6-10p6---6-10p6---6-10p6---6-10p6---|
|-------8--------8--------8---------8--------8--------8--------8----------|
|-------------------------------------------------------------------------|
|-------------------------------------------------------------------------|
|-------------------------------------------------------------------------|
|-------------------------------------------------------------------------|

|--------9p5-0-5--9p5-0-5--9p5-0-5--9p5-0-----|
|--8-10---------------------------------------|
|---------------------------------------------|
|---------------------------------------------|
|---------------------------------------------|
|---------------------------------------------|

Almost there
|--12p8----8-12p8----8-12p8----8-12p8----7----|
|-------10--------10--------10--------10------|
|---------------------------------------------|
|---------------------------------------------|
|---------------------------------------------|
|---------------------------------------------|

|--10p7---7-10p7---7-10p7---7-10p7----6-10p6---6-10p6---6-10p6---6-10p6---|
|-------8--------8--------8---------8--------8--------8--------8----------|
|-------------------------------------------------------------------------|
|-------------------------------------------------------------------------|
|-------------------------------------------------------------------------|
|-------------------------------------------------------------------------|

|--------9p5-0-5--9p5-0-5--9p5-0-5--9p5-0-----|
|--8-10---------------------------------------|
|---------------------------------------------|
|---------------------------------------------|
|---------------------------------------------|
|---------------------------------------------|

Hope your enjoying
|--13p8----8-13p8----8-13p8----8-13p8----15p10----10-15p10----18p13----|
|-------10--------10--------10--------10-------12----------12----------|
|----------------------------------------------------------------------|
|----------------------------------------------------------------------|
|----------------------------------------------------------------------|
|----------------------------------------------------------------------|

|-----13-18p13----20p15----15-20p15-20p15----15-20p15-20p15-----|
|--15----------15-------17----------------17--------------------|
|---------------------------------------------------------------|
|---------------------------------------------------------------|
|---------------------------------------------------------------|
|---------------------------------------------------------------|

|-----15-19p15----15-19p15-19p15----15-19p15-19p15---------|
|--17----------17----------------17------------------------|
|----------------------------------------------------------|
|----------------------------------------------------------|
|----------------------------------------------------------|
|----------------------------------------------------------|

|-----15-18p15----15-18p15-18p15----15-18p15-18p15---------|
|--17----------17----------------17------------------------|
|----------------------------------------------------------|
|----------------------------------------------------------|
|----------------------------------------------------------|
|----------------------------------------------------------|

|-----15-17p15----15-17p15-17p15----15-17p15-17p15--17-----|
|--17----------17----------------17------------------------|
|----------------------------------------------------------|
|----------------------------------------------------------|
|----------------------------------------------------------|
|----------------------------------------------------------|

|--13p8----8-13p8-13p8----8-13p8-13p8----15p10----10-15p10----|
|-------10-------------10-------------10-------12-------------|
|-------------------------------------------------------------|
|-------------------------------------------------------------|
|-------------------------------------------------------------|
|-------------------------------------------------------------|

End of solo
|-----18p13----13-18p13-----12b-12b-12b-12b-----|
|--12-------15----------15----------------------|
|-----------------------------------------------|
|-----------------------------------------------|
|-----------------------------------------------|
|-----------------------------------------------|


Sweet riff
|---------------------------------------------|-
|---------------------------------------------|--
|---------------------------------------------|---
|--9-8-7----6----5-----------5--------5-------|---- x 4
|--7-6-5----4----3-----------5--------5-------|---
|---------6----5----4---0000---000000---00----|-


Then This.
|------------------------------------------------------|-
|------------------------------------------------------|--
|------------------------------------------------------|---
|---------10------------10-----------9--------9--------|---- x 1
|---------10------------10-----------9--------9--------|---
|--8-8-8-8-8-8-8-8-8-8-8-8-8-8--7777-7-777777-7-77-----|-

|------------------------------------------------------|-
|------------------------------------------------------|--
|------------------------------------------------------|---
|-------8--------8----------7--------7-----------------|---- x 1
|-------8--------8----------7--------7-----------------|---
|--6666-6-666666-6-66--5555-5-555555-5-55--------------|-

|------------------------------------------------------|-
|------------------------------------------------------|--
|------------------------------------------------------|---
|-------3--------3----------5--------5----------8------|---- x 1
|-------3--------3----------5--------5----------8------|---
|--1111-1-111111-1-11--3333-3-333333-3-33--6666-6-66---|-


Sweet riff
|---------------------------------------------|-
|---------------------------------------------|--
|---------------------------------------------|---
|--9-8-7----6----5-----------5--------5-------|---- x 3
|--7-6-5----4----3-----------5--------5-------|---
|---------6----5----4---0000---000000---00----|-

|-----------------------|-
|-----------------------|--
|------------5~---------|---
|--9-8-7-----5~---------|---- x 1
|--7-6-5-----3~---7\----|---
|---------6-------7\----|-

slide riff
|-----------------------------|-
|-----------------------------|--
|-----------------------------|---
|-----------------------------|---- x 11
|--7/8-------7/8--------------|---
|--5/6--0-0--5/6--0-0-0-0-----|-

|---------------------------------------|-
|---------------------------------------|--
|---------------------------------------|---
|---------------------------------------|---- x 1
|--7/8-------7/8-------10-9--8--10-9----|---
|--5/6--0-0--5/6--0-0---8-7--6---8-7----|-


Little different
|-----------------------------|-
|-----------------------------|--
|-----------------------------|---
|-----------------------------|---- x 3
|--7/8-------7/8--------------|---
|--5/6--0-0--5/6--0-0-0-0-----|-

|------------------------------|-
|------------------------------|--
|------------------------------|---
|------------------------------|---- x 1
|--7/8-------7/8-------10-9----|---
|--5/6--0-0--5/6--0-0---8-7----|-

...
|-----------------------------|-
|-----------------------------|--
|-----------------------------|---
|-----------------------------|---- x 3
|--7/8-------7/8--------------|---
|--5/6--0-0--5/6--0-0-0-0-----|-

|------------------------------|-
|------------------------------|--
|------------------------------|---
|------------------------------|---- x 1
|--7/8-------7/8-------10-9----|---
|--5/6--0-0--5/6--0-0---8-7----|-


riff
|---------------------------|-
|---------------------------|--
|---------------------------|---
|---------------------------|---- x 4
|--2h4------2h4-------------|---
|--2----2-2-2----2-2-2-2----|-


riff
|--------------------------------|-
|--------------------------------|--
|--------------------------------|---
|--6-----5-4-----6---22222222----|---- x 1
|--4-----3-2-----4---00000000----|---
|-----x-------x------------------|-

|-------------------------------------|-
|-------------------------------------|--
|-------------------------------------|---
|--6-----5-4-----6---22222222---------|---- x 1
|--4-----3-2-----4---00000000--2-2----|---
|-----x-------x-----------------------|-


riff
|---------------------------|-
|---------------------------|--
|---------------------------|---
|---------------------------|---- x 2
|--2h4------2h4-------------|---
|--2----2-2-2----2-2-2-2----|-


|--------------------------------|-
|--------------------------------|--
|--------------------------------|---
|--6-----5-4-----6---22222222----|---- x 2
|--4-----3-2-----4---00000000----|---
|-----x-------x------------------|-


|-----------------------------|-
|-----------------------------|--
|-----------------------------|---
|--------2---5----------------|---- x 5
|--4-2-4-0-4-3----------------|---
|--2-0-2---2------------------|-

Changes too...
|-----------------------------|-
|-----------------------------|--
|-----------------------------|---
|--------2--------------------|---- x 1
|--4-2-4-0-4-2----------------|---
|--2-0-2---2-0----------------|-

|-----------------------------|-
|-----------------------------|--
|-----------------------------|---
|--------2---5----------------|---- x 1
|--4-2-4-0-4-3----------------|---
|--2-0-2---2------------------|-

Same again
|-----------------------------|-
|-----------------------------|--
|-----------------------------|---
|--------2--------------------|---- x 1
|--4-2-4-0-4-2----------------|---
|--2-0-2---2-0----------------|-

Bit Different
|-----------------------------------------|-
|-----------------------------------------|--
|-----------------------------------------|---
|--------2---5---x-x-5-x-x-5-x-x-5\4------|---- x 1
|--4-2-4-0-4-3---x-x-3-x-x-3-x-x-3\2------|---
|--2-0-2---2------------------------------|-

|-----------------------------|-
|-----------------------------|--
|-----------------------------|---
|--------2--------------------|---- x 1
|--4-2-4-0-4-2----------------|---
|--2-0-2---2-0---00000000-----|-


This once more
|-----------------------------------------|-
|-----------------------------------------|--
|-----------------------------------------|---
|--------2---5---x-x-5-x-x-5-x-x-5\4------|---- x 1
|--4-2-4-0-4-3---x-x-3-x-x-3-x-x-3\2------|---
|--2-0-2---2------------------------------|-

|-----------------------------|-
|-----------------------------|--
|-----------------------------|---
|--------2--------------------|---- x 1
|--4-2-4-0-4-2----------------|---
|--2-0-2---2-0---00000000-----|-


Outro/end
|----------------------------------------------|-
|-----12-13~--------12~------------------------|--
|---------------14------------11~----12--------|---
|--------------------------14-----------14~----|---- x 4
|----------------------------------------------|---
|--x---------x----------x---------x------------|-

Tap to rate this tab
# A B C D E F G H I J K L M N O P Q R S T U V W X Y Z