Song name
# A B C D E F G H I J K L M N O P Q R S T U V W X Y Z

Metallica - For Whom The Bell Tolls tab

Intro: 0:08
|------------------------------------|
|------------------------------------|
|-----------------7-6-5-4------7-----|Play 4 times
|-4-4--4-4-2---------------5-4-------|
|-4-4--4-4-2-Lets Ring-----------5-4-|
|-2-2--2-2-0-------------------------|
                  *Bass for guitar(dist/wah)
Intro Part 2: 0:26
Basically the same thing
|--------------------------------|
|--------------------------------|
|-------7-6-5-4-------7----------|Play 4 times
|-2---------------5-4-------4--4-|
|-2-Let Ring------------5-4-4--4-|
|-0-------------------------2--2-|

Riff A: 0:40      
|--------------|--------------|---------|             
|--------------|--------------|---------|             
|--------------|Play 4 times--|---------|
|-2------4-4-2-|--------------|--4--4---|
|-2------4-4-2-|--------------|--4--4---|
|-0------2-2-0-|--------------|--2--2---|

Riff B: 0:56
P.M.............................................................
|------------------------------------------------------------------|
|------------------------------------------------------------------|
|------------------------------------------------------------------|X2
|--------------------------------2-------------------------------4-|Let the B
|--2-5-4-3-2-5-4-3-2-5-4-3-2-3-4-0-2-5-4-3-2-5-4-3-2-5-4-3-2-3-4-2-|Chord Ring
|--0-3-2-1-0-3-2-1-0-3-2-1-0-1-2---0-3-2-1-0-3-2-1-0-3-2-1-0-1-2---|On the 2nd

Riff C: 1:17-1:50 No cluw how many times
This little riff is covered by the chords E5 G5 G5 E5 C5 A5. Play that sequence twice. And Keep playing that like triplet riff the whole time.


PM..............
|----------------------|
|----------------------|
|-12-9-11---9-11-------|
|---------12-----------|
|----------------------|
|----------------------|

Riff D(also the chorus)1:51 Both guitars
PM......   .....   .....        .......  ......  ......
|--------------------------------------------------------------|
|--------------------------------------------------------------|
|--------------------------3-----------------------------3-----|Two Times
|--------5-------7-------5-3-4---------5-------7-------5-3-4-3-|
|--------5-------7-------5-1-4---------5-------7-------5-1-4-3-|
|--0-0-0-3-0-0-0-5-0-0-0-3---2---0-0-0-3-0-0-0-5-0-0-0-3---2-1-|

Play the chords you played in riff C twice 2:06

Now play Riff D 2:39

Interlude 2:54 Both Guitars
|---------------------------------------|
|---------------------------------------|
|--12-9-11----9-------------------------|
|----------12---11-12-9-11----9---------|
|--------------------------12---10-2----|
|----------------------------------0----|

|--------------------------------------------------------|
|--------------------------------------------------------|
|--12-9-11----9------------------------------------------|
|----------12---11-12-9-11----9--------------------------|
|--------------------------12---10-5--5-5-5-5---5-5-5----|
|----------------------------------3--3-3-3-3---3-3-3----|

|---------------------------------------|
|---------------------------------------|
|--12-9-11----9-------------------------|
|----------12---11-12-9-11----9-----4---|
|--------------------------12---10--2---|
|---------------------------------------|

Gtr 2                                     Gtr 1
|------------------------------------7--|---------------------------------|
|---------------------------------------|---------------------------------|
|--12-9-11----9-------------------------|-12-9-11---9-11-12-9-11----9-11--|
|----------12---11-12-9-11----9---------|---------12-------------12------4|
|--------------------------12---10------|--------------------------------2|
|---------------------------------------|---------------------------------|
Gtr 2                                     Gtr 1
|------------------------------------7---|---------------------------------|
|--------------------------------------8-|---------------------------------|
|--12-9-11----9--------------------------|-12-9-11---9-11-12-9-11----9-11--|
|----------12---11-12-9-11----9----------|---------12-------------12------4|
|--------------------------12---10-------|--------------------------------2|
|----------------------------------------|---------------------------------|

|------------------------------------7--|---------------------------------|
|---------------------------------------|---------------------------------|
|--12-9-11----9-------------------------|-12-9-11---9-11-12-9-11----9-11--|
|----------12---11-12-9-11----9---------|---------12-------------12------4|
|--------------------------12---10------|--------------------------------2|
|---------------------------------------|---------------------------------|

Play the Riff C chords and the Chorus

Outro(Sorry I dont have the solo stuff)
|------------------------------|
|------------------------------|
|------------------------------|
|--2---4-4---2---4-4-5-5-4-4-2-|
|--2---4-4---2---4-4-5-5-4-4-2-|
|--0---2-2---0---2-2-3-3-2-2-0-|
Tap to rate this tab
# A B C D E F G H I J K L M N O P Q R S T U V W X Y Z