Guitaretab - guitar tabs
Song name
# A B C D E F G H I J K L M N O P Q R S T U V W X Y Z

Metallica - Enter Sandman tab

Tabber: Trivium_man


Intro:   (Play 12 times)
======

1|---------------------------------------------------------------------------
2|---------------------------------------------------------------------------
3|---------------------------------------------------------------------------
4|------------5--------------------------------------------------------------
5|--------7---------------7--------------------------------------------------
6|----0-----------6---5------------------------------------------------------


Rhythm Fill 1:
==============



1|---------------------------------------------------------------------------
2|---------------------------------------------------------------------------
3|---------------------------------------------------------------------------
4|---------------------------------------------------------------------------
5|--2---------------------------/7------------------------------/7-----------
6|--0---0---0---0---0---0---0--------0---0---0---0---0---0---0---------------

                                     |-------------3x------------|





1|---------------------------------------------------------------------------
2|---------------------------------------------------------------------------
3|---------------------------------------------------------------------------
4|---------------------------------------------------------------------------
5|----------7------------------3\2-------------7-------------------3\2-------
6|--0---0------6---0---0---0---1\0-----0---0-------6---5---0---0---1\0-------

    |-------------4x-------------|     |--------------8x-------------|

                 When playing the F5-E5 pulloffs, the E5 is not strummed.
                          * Skip the F5-E5 pulloff on the 8th repetition.


Rhythm Fill 2:
==============

   E5                        G5  E5  G5  E5 F#5  G5 F#5

             sl       V          PM------------------|

1|---------------------------------------------------------------------------
2|---------------------------------------------------------------------------
3|---------------------------------------------------------------------------
4|---------------------------------------------------------------------------
5|--2---2----/7--------------5-------5-------4---5---4-----------------------
6|--0---0---------6---5------3---0---3---0---2---3---2-----------------------

    |-------3x--------|

(Repeat Rhythm Fill 2 once)








Rhythm Fill 3:
==============

    E5                          F5 E5                              F5 E5

        PM------------------|     P    PM-----------------------|   P

1|---------------------------------------------------------------------------
2|---------------------------------------------------------------------------
3|---------------------------------------------------------------------------
4|---------------------------------------------------------------------------
5|--2----------------------------3\2-------------------------------3\2-------
6|--0---0---0---0---0---0---0----1\0---0---0---0---0---0---0---0---1\0-------



   E5                              G5  E5  G5  E5 F#5  G5 F#5


    PM----------------------|          PM-----------|

1|---------------------------------------------------------------------------
2|---------------------------------------------------------------------------
3|---------------------------------------------------------------------------
4|---------------------------------------------------------------------------
5|---------------------------------5-------5-------4---5---4-----------------
6|--0---0---0---0---0---0---0------3---0---3---0---2---3---2-----------------


Say your prayers, little one
Don't forget, my son
To include everyone

(Repeat Rhythm Fill 3 once)

Tuck you in, warm within
Keep you free from sin
Till the sandman comes



Bridge:
=======

                          F#5                  E5  F5  F#5

                           PM--------------------------|
[ Tab from: http://www.guitaretab.com/m/metallica/24189.html ]
1|---------------------|-----------------------------------------------------
2|---------------------|-----------------------------------------------------
3|---------2-----------|-----------------------------------------------------
4|-----4---------------|-----------------------------------------------------
5|-------------3---2---|---4---4---4---4---4---2---3---4---------------------
6|--2------------------|---2---2---2---2---2---0---1---2---------------------

    |------3x------|


Sleep with one eye open
Gripping your pillow tight



Chorus Fill:
============

  F#5  C5  B5    F#5  C5  B5   F#5  C5  B5  E5

                                                 PM-----------|

1|---------------------------------------------------------------------------
2|---------------------------------------------------------------------------
3|----------------------------------------------------------------2----------
4|------5---4---------5---4---------5---4---------5---2---5---2-------2------
5|--4---3---2-----4---3---2-----4---3---2----2-------------------------------
6|--2-------------2-------------2------------0-------------------------------


Exit light
Enter night



  F#5  C5  B5   E5     		      	      G5              F5  G5

                      PM----------|            PM----------|

1|---------------------------------------------------------------------------
2|---------------------------------------------------------------------------
3|------------------------------------2--------------------------------------
4|------5---4---------5---2---5---2-------2----------------------------------
5|--4---3---2-----2----------------------------5-------5-------4---5---5-----
6|--2-------------0----------------------------3---0---3---0---2---3---3-----


Take my hand
We're off to never never land


(Repeat Rhythm Fill 2 twice)

Something's wrong, shut the light
Heavy thoughts tonight
And they aren't of Snow White
Dreams of War, dreams of lies
Dreams of dragon's fire
And of things that will bite, yeah!

(Repeat Bridge)

Sleep with one eye open
Gripping you pillow tight

(Repeat Chorus Fill)

Exit light
Enter night
Take my hand
Off to never-never land

(Repeat Rhythm Fill 2 twice)
(Repeat Bridge)
(Repeat Chorus Fill)
(Repeat Intro 8 times)

Now I lay me down to sleep
Pray the lord my soul to keep
If I die before I wake
Pray the lord my soul to take

(Repeat Bridge, 1st measure only, 6 times)

Hush little baby, don't say a word
And never mind that noise you heard
It's just the beasts under your bed,
In your closet, in your head

(Repeat Chorus Fill twice)

Exit light
Enter night
Take my hand
Off to never-never land

(Repeat Rhythm Fill 2 twice)

BOOM!

(Repeat Rhythm Fill 2 4 times)



Outro:
======

   E5                          F5 E5                           F5 E5

        PM              PM--|    P    PM---------------------|    P

1|---------------------------------------------------------------------------
2|---------------------------------------------------------------------------
3|---------------------------------------------------------------------------
4|---------------------------------------------------------------------------
5|--2-------7-------------------3\2-----------7------------------3\2---------
6|--0---0-------6---5---0---0---1\0---0---0------6---5---0---0---1\0---------

                                      |-------------3x-------------|



                              F5 E5

    PM--|          PM------|    P      PM--------------------------|
1|---------------------------------------------------------------------------
2|---------------------------------------------------------------------------
3|---------------------------------------------------------------------------
4|---------------------------------------------------------------------------
5|----------7------------------3\2-------------7-----------------------------
6|--0---0------6---0---0---0---1\0-----0---0-------0---0---0---0---0---------

    |------------4x--------------|     |------------4x-------------|




    PM------------------------------|

1|---------------------------------------------------------------------------
2|---------------------------------------------------------------------------
3|---------------------------------------------------------------------------
4|---------------------------------------------------------------------------
5|---------------------------------------------------------------------------
6|--0---0---0---0---0---0---0---0---0----------------------------------------

    |--- Repeat while fading out ---|

enjoy it...
Related for Enter Sandman tab
Enter Sandman chords by Metallica