Song name
# A B C D E F G H I J K L M N O P Q R S T U V W X Y Z

Metallica - King Nothing tab

metallica
2010
album:load
song:king nothing

g1 Kirk waw_________________________________
e(b---12-12-12-12-12-12-12-12-12-12-12-12-12-|
b(b------------------------------------------|
g(b------------------------------------------|
d(b------------------------------------------|
a(b------------------------------------------|
(be------------------------------------------|

g2 James
e(b-----------------------------------------|
b(b--------------------8\-------------------|
g(b--------------------7\-------------------|
d(b-----------------------------------------|
a(b-----------------------------------------|
e(b-----------------------------------------|


g1 Kirk waw_________________________________
e(b---12-12-12-12-12-12-12-12-12-12-12-12-12-|
b(b------------------------------------------|
g(b------------------------------------------|
d(b------------------------------------------|x2
a(b------------------------------------------|
e(b------------------------------------------|

g2 James
e(b--------------------------------------------------|
b(b--------------------------------------------------|
g(b--------------------------------------------------|
d(b-------------------5------------5---------8---7x2-|
a(b-----5-6-7-----5/7---7-----5/7-----7--------------|
e(b--0---------0-----------0-------------5/6---5-----|

g1 Kirk
e(b--------------------------------------------------|
b(b--------------------------------------------------|
g(b--------------------------------------------------|
d(b-------------------5------------5---------8---7x2-|
a(b-----5-6-7-----5/7---7-----5/7-----7--------------|
e(b--0---------0-----------0-------------5/6---5-----|

g2 James
e(b--------------------------------------------------|
b(b--------------------------------------------------|
g(b--------------------------------------------------|
d(b-------------------5------------5---------8---7x2-|
a(b-----5-6-7-----5/7---7-----5/7-----7--------------|
e(b--0---------0-----------0-------------5/6---5-----|

g1 kirk
e(b-----------------------------------------------------------------|
b(b----12-12-------12-12--------12----------------------------------|
g(b----12-12-------12-12--------12-14/12----12/14/12----12/14/12----|
d(b-----------14----------14-------------14----------14----------14-|x2
a(b-----------------------------------------------------------------|
e(b-----------------------------------------------------------------|

g2 James
e(b--------------------------------------------------|
b(b--------------------------------------------------|
g(b--------------------------------------------------|
d(b-------------------5------------5---------8---7x2-|
a(b-----5-6-7-----5/7---7-----5/7-----7--------------|
e(b--0---------0-----------0-------------5/6---5-----|

g1Kirk
g2James
versrif
e(b-------------------------------|
b(b-------------------------------|
g(b-------------------------------|
d(b-------------------------------|x4
a(b-----------8-7-----------8-8-7-|
e(b--0--3--0--6-5--0--3--0--6-6-5-|

g1Kirk
g2James
e(b----------------------------------------------------------|
b(b----------------------------------------------------------|
g(b--------5-------------8-------5-----------8-8-8-8-8-8-8-8-|
d(b--7-7-7---7-7-7-5-7-7-6-7-7-7---7-7-5-7-7-6-6-6-6-6-6-6-6-|
a(b----------------------------------------------------------|
e(b----------------------------------------------------------|

g1Kirk
g2James
refreng
   Em            C/E           B/E
e(b----------------------------------------------------------|
b(b----------------1-1-1-1-1-1-1-3-3-3-3-3-3-3---------------|
g(b----------------0-0-0-0-0-0-0-4-4-4-4-4-4-4-2-2-2-2-2-2-2-|
d(b--2-2-2-2-2-2-2-2-2-2-2-2-2-2-4-4-4-4-4-4-4-2-2-2-2-2-2-2-|
a(b--2-2-2-2-2-2-2-3-3-3-3-3-3-3-2-2-2-2-2-2-2-0-0-0-0-0-0-0-|
e(b--0-0-0-0-0-0-0-0-0-0-0-0-0-0-0-0-0-0-0-0-0---------------|

e(b----------------------------------------------------------|
b(b----------------1-1-1-1-1-1-1-3-3-3-3-3-3-3---------------|
g(b----------------0-0-0-0-0-0-0-4-4-4-4-4-4-4-2-2-2-2-2-2-2-|
d(b--2-2-2-2-2-2-2-2-2-2-2-2-2-2-4-4-4-4-4-4-4-2-2-2-2-2-2-2-|
a(b--2-2-2-2-2-2-2-3-3-3-3-3-3-3-2-2-2-2-2-2-2-0-0-0-0-0-0-2-|
e(b--0-0-0-0-0-0-0-0-0-0-0-0-0-0-0-0-0-0-0-0-0---------------|

g1Kirk          Waw________
e(b-------------12-12-12-12-|
b(b-------------------------|
g(b-------------------------|
d(b-3-3-3-3-3-3-------------|
a(b-3-3-3-3-3-3-------------|
e(b-1-1-1-1-1-1-------------|

g2James
e(b-------------------------|
b(b-------------------------|
g(b-------------------------|
d(b-3-3-3-3-3-3-x-x-x-x-x-x-|
a(b-3-3-3-3-3-3-x-x-x-x-x-x-|
e(b-1-1-1-1-1-1-x-x-x-x-x-x-|

g1 Kirk
e(b--------------------------------------------------|
b(b--------------------------------------------------|
g(b--------------------------------------------------|
d(b-------------------5------------5---------8---7x2-|
a(b-----5-6-7-----5/7---7-----5/7-----7--------------|
e(b--0---------0-----------0-------------5/6---5-----|

g2 James
e(b--------------------------------------------------|
b(b--------------------------------------------------|
g(b--------------------------------------------------|
d(b-------------------5------------5---------8---7x2-|
a(b-----5-6-7-----5/7---7-----5/7-----7--------------|
e(b--0---------0-----------0-------------5/6---5-----|

g1 kirk
e(b-----------------------------------------------------------------|
b(b----12-12-------12-12--------12----------------------------------|
g(b----12-12-------12-12--------12-14/12----12/14/12----12/14/12----|
d(b-----------14----------14-------------14----------14----------14-|x2
a(b-----------------------------------------------------------------|
e(b-----------------------------------------------------------------|

g2 James
e(b--------------------------------------------------|
b(b--------------------------------------------------|
g(b--------------------------------------------------|
d(b-------------------5------------5---------8---7x2-|
a(b-----5-6-7-----5/7---7-----5/7-----7--------------|
e(b--0---------0-----------0-------------5/6---5-----|

g1Kirk
g2James
versrif
e(b-------------------------------|
b(b-------------------------------|
g(b-------------------------------|
d(b-------------------------------|x4
a(b-----------8-7-----------8-8-7-|
e(b--0--3--0--6-5--0--3--0--6-6-5-|

g1Kirk
g2James
e(b----------------------------------------------------------|
b(b----------------------------------------------------------|
g(b--------5-------------8-------5-----------8-8-8-8-8-8-8-8-|
d(b--7-7-7---7-7-7-5-7-7-6-7-7-7---7-7-5-7-7-6-6-6-6-6-6-6-6-|
a(b----------------------------------------------------------|
e(b----------------------------------------------------------|

g1Kirk
g2James
refreng
   Em            C/E           B/E
e(b----------------------------------------------------------|
b(b----------------1-1-1-1-1-1-1-3-3-3-3-3-3-3---------------|
g(b----------------0-0-0-0-0-0-0-4-4-4-4-4-4-4-2-2-2-2-2-2-2-|
d(b--2-2-2-2-2-2-2-2-2-2-2-2-2-2-4-4-4-4-4-4-4-2-2-2-2-2-2-2-|
a(b--2-2-2-2-2-2-2-3-3-3-3-3-3-3-2-2-2-2-2-2-2-0-0-0-0-0-0-0-|
e(b--0-0-0-0-0-0-0-0-0-0-0-0-0-0-0-0-0-0-0-0-0---------------|

e(b----------------------------------------------------------|
b(b----------------1-1-1-1-1-1-1-3-3-3-3-3-3-3---------------|
g(b----------------0-0-0-0-0-0-0-4-4-4-4-4-4-4-2-2-2-2-2-2-2-|
d(b--2-2-2-2-2-2-2-2-2-2-2-2-2-2-4-4-4-4-4-4-4-2-2-2-2-2-2-2-|
a(b--2-2-2-2-2-2-2-3-3-3-3-3-3-3-2-2-2-2-2-2-2-0-0-0-0-0-0-2-|
e(b--0-0-0-0-0-0-0-0-0-0-0-0-0-0-0-0-0-0-0-0-0---------------|

g1Kirk          Waw________
e(b-------------12-12-12-12-13-----|
b(b-------------------------16-----|full
g(b--------------------------------|
d(b-3-3-3-3-3-3--------------------|
a(b-3-3-3-3-3-3--------------------|
e(b-1-1-1-1-1-1--------------------|

g2James
e(b-------------------------|
b(b-------------------------|
g(b-------------------------|
d(b-3-3-3-3-3-3-x-x-x-x-x-x-|
a(b-3-3-3-3-3-3-x-x-x-x-x-x-|
e(b-1-1-1-1-1-1-x-x-x-x-x-x-|

solo
g1Kirk
e(b-12-12-12-12-12-12-12-12-17--18-18-18-18-18-18-18-18-17-|
b(b--------------------------------------------------------|
g(b-9--9--9--9--9--9--9--9--14--15-15-15-15-15-15-15-15-14-|
d(b--------------------------------------------------------|
a(b--------------------------------------------------------|
e(b--------------------------------------------------------|

g2James
e(b-------------------------------|
b(b-------------------------------|
g(b-------------------------------|
d(b-------------------------------|
a(b-----------8-7-----------8-8-7-|
e(b--0--3--0--6-5--0--3--0--6-6-5-|

g1 Kirk
e(b-12-12-12-12-12-12-12-12-14--15-15-15-15-15-15-15-15-|
b(b-----------------------------------------------------|
g(b-9--9--9--9--9--9--9--9--11--12-12-12-12-12-12-12-12-|
d(b-----------------------------------------------------|
a(b-----------------------------------------------------|
e(b-----------------------------------------------------|

g2James
e(b-------------------------------|
b(b-------------------------------|
g(b-------------------------------|
d(b-------------------------------|
a(b-----------8-7-----------8-8-7-|
e(b--0--3--0--6-5--0--3--0--6-6-5-|

g1 Kirk
e(b-12-0-0-14-0-0-15-0-14/12----12-----12-0-0-14-0-0-15-0-14/12----12--------|
b(b--------------------------15----15full-----------------------15----15-----|full
g(b--------------------------------------------------------------------------|
d(b--------------------------------------------------------------------------|
a(b--------------------------------------------------------------------------|
e(b--------------------------------------------------------------------------|

g2James
e(b-------------------------------|
b(b-------------------------------|
g(b-------------------------------|
d(b-------------------------------|
a(b-----------8-7-----------8-8-7-|
e(b--0--3--0--6-5--0--3--0--6-6-5-|

g1 Kirk
e(b-12/0----12--------12/0----12-------12-0-0-14-0-0-15-12/0----12--------|
b(b------15----15Full------15----15Full----------------------15----15-----|full
g(b-----------------------------------------------------------------------|
d(b-----------------------------------------------------------------------|
a(b-----------------------------------------------------------------------|
e(b-----------------------------------------------------------------------|

g2James
e(b-------------------------------|
b(b-------------------------------|
g(b-------------------------------|
d(b-------------------------------|
a(b-----------8-7-----------8-8-7-|
e(b--0--3--0--6-5--0--3--0--6-6-5-|

g1 Kirk
e(b-17-17-17-20-------17-------------------17-17-17-20-------17--------------|
b(b-------------20-20----17-17-20----------------------20-20----17-17-17-----|
g(b-------------------------------19full19----------------------------19-----|full
d(b--------------------------------------------------------------------------|
a(b--------------------------------------------------------------------------|
e(b--------------------------------------------------------------------------|

g2James
e(b----------------------------------------------------------|
b(b----------------------------------------------------------|
g(b--------5-------------8-------5-----------8-8-8-8-8-8-8-8-|
d(b--7-7-7---7-7-7-5-7-7-6-7-7-7---7-7-5-7-7-6-6-6-6-6-6-6-6-|
a(b----------------------------------------------------------|
e(b----------------------------------------------------------|

g1 Kirk fast
e(b----12-12----------12-----------------12-----------------12-------|
b(b-15full--15full-15----15/12-15full-15----15/12-15full-15----15/12-|
g(b------------------------------------------------------------------|
d(b------------------------------------------------------------------|
a(b------------------------------------------------------------------|
e(b------------------------------------------------------------------|

g2James
e(b-------------------------------|
b(b-------------------------------|
g(b-------------------------------|
d(b-------------------------------|
a(b-----------8-7-----------8-8-7-|
e(b--0--3--0--6-5--0--3--0--6-6-5-|

g1 Kirk fast
e(b--------------------------------------------------------------------|
b(b----12-15/12-----12-15/12-------------------------------12-14-15-14-|
g(b-14full------14full-------14/12----12-15/14/12----14/12-12-14-15-14-|
d(b--------------------------------14-------------14-------------------|
a(b--------------------------------------------------------------------|
e(b--------------------------------------------------------------------|

g2James
e(b-------------------------------|
b(b-------------------------------|
g(b-------------------------------|
d(b-------------------------------|
a(b-----------8-7-----------8-8-7-|
e(b--0--3--0--6-5--0--3--0--6-6-5-|

g1 Kirk fast
e(b----12-12-15/12----12/15/12---------------------------------------------|
b(b-15full---------15----------15/12----12/15/12---------------------------|
g(b----------------------------------14---------14/12----12/14/12-14/12----|
d(b---------------------------------------------------14----------------14-|
a(b------------------------------------------------------------------------|
e(b------------------------------------------------------------------------|

g2James
e(b-------------------------------|
b(b-------------------------------|
g(b-------------------------------|
d(b-------------------------------|
a(b-----------8-7-----------8-8-7-|
e(b--0--3--0--6-5--0--3--0--6-6-5-|

g1Kirk
e(b-------------------------------|
b(b-------------------------------|
g(b-14Full/14full/14full/14-12----|
d(b----------------------------14-|
a(b-------------------------------|
e(b-------------------------------|

g2James
e(b------------------------------|
b(b------------------------------|
g(b------------------------------|
d(b-2----------------------------|
a(b-2----------------------------|
e(b-0----------------------------|

g1 Kirk waw_________________________________
e(b---12-12-12-12-12-12-12-12-12-12-12-12-12-|
b(b------------------------------------------|
g(b------------------------------------------|
d(b------------------------------------------|x2
a(b------------------------------------------|
e(b------------------------------------------|

g2 James
e(b--------------------------------------------------|
b(b--------------------------------------------------|
g(b--------------------------------------------------|
d(b-------------------5------------5---------8---7x2-|
a(b-----5-6-7-----5/7---7-----5/7-----7--------------|
e(b--0---------0-----------0-------------5/6---5-----|

g1 Kirk
g2 James
e(b---0---0---0---|
b(b-5---3---1---0-|
g(b---------------|
d(b---------------|x2
a(b---------------|
e(b---------------|

g1Kirk
g2James
refreng
   Em            C/E           B/E
e(b----------------------------------------------------------|
b(b----------------1-1-1-1-1-1-1-3-3-3-3-3-3-3---------------|
g(b----------------0-0-0-0-0-0-0-4-4-4-4-4-4-4-2-2-2-2-2-2-2-|
d(b--2-2-2-2-2-2-2-2-2-2-2-2-2-2-4-4-4-4-4-4-4-2-2-2-2-2-2-2-|
a(b--2-2-2-2-2-2-2-3-3-3-3-3-3-3-2-2-2-2-2-2-2-0-0-0-0-0-0-0-|
e(b--0-0-0-0-0-0-0-0-0-0-0-0-0-0-0-0-0-0-0-0-0---------------|

e(b----------------------------------------------------------|
b(b----------------1-1-1-1-1-1-1-3-3-3-3-3-3-3---------------|
g(b----------------0-0-0-0-0-0-0-4-4-4-4-4-4-4-2-2-2-2-2-2-2-|
d(b--2-2-2-2-2-2-2-2-2-2-2-2-2-2-4-4-4-4-4-4-4-2-2-2-2-2-2-2-|
a(b--2-2-2-2-2-2-2-3-3-3-3-3-3-3-2-2-2-2-2-2-2-0-0-0-0-0-0-0-|
e(b--0-0-0-0-0-0-0-0-0-0-0-0-0-0-0-0-0-0-0-0-0---------------|

g1Kirk          Waw________
e(b-------------12-12-12-12-------|
b(b-------------------------------|
g(b-------------------------------|
d(b-3-3-3-3-3-3-------------------|
a(b-3-3-3-3-3-3-------------------|
e(b-1-1-1-1-1-1-------------------|

g2James
e(b-------------------------|
b(b-------------------------|
g(b-------------------------|
d(b-3-3-3-3-3-3-x-x-x-x-x-x-|
a(b-3-3-3-3-3-3-x-x-x-x-x-x-|
e(b-1-1-1-1-1-1-x-x-x-x-x-x-|
g1 Kirk
e(b--------------------------------------------------|
b(b--------------------------------------------------|
g(b--------------------------------------------------|
d(b-------------------5------------5---------8---7x4-|
a(b-----5-6-7-----5/7---7-----5/7-----7--------------|
e(b--0---------0-----------0-------------5/6---5-----|

g2 James
e(b--------------------------------------------------|
b(b--------------------------------------------------|
g(b--------------------------------------------------|
d(b-------------------5------------5---------8---7x4-|
a(b-----5-6-7-----5/7---7-----5/7-----7--------------|
e(b--0---------0-----------0-------------5/6---5-----|
Tap to rate this tab
# A B C D E F G H I J K L M N O P Q R S T U V W X Y Z