Song name
# A B C D E F G H I J K L M N O P Q R S T U V W X Y Z

Metallica - Ronnie tab

tabbed by:trogdor200
i found out 2 different ways to play this one harder than the other.
way one is in standard tuneing.
way two is is droped to a half step down.


(way one)
|-------------------------------------------------------------------------------------|
|-------------------------------------6------------------------6----------------------|
|-----------------4B------------------6FB-----------------4B---6B-(6)-(6)R-4---4-6----|
|---4-6----4-6----------4-6----4-6----------4-6----4-6-----------------------6--------|
|-------------------------------------------------------------------------------------|
|-4------4------4------4------4------4------------4------4---4------------------------|



(way two)
|-------------------------------------------------------------------------------------|
|----------------------------------7------------------------7-------------------------|
|----------------5B----------------7FB-----------------5B---7FB-(7)-(7)R-5---5-7------|
|---5-7----5-7---------5-7---5-7---------5-7----5-7------------------------7----------|
|-0------0------0----0-----0------0-----------0------0----0---------------------------|
|-------------------------------------------------------------------------------------|
Tap to rate this tab
 
# A B C D E F G H I J K L M N O P Q R S T U V W X Y Z