Song name
# A B C D E F G H I J K L M N O P Q R S T U V W X Y Z

Metallica - Nothing Else Matters tab

Help us improve GuitareTab! Take a short survey!
Nothing Else Matters
Metallica

Intro
|-----------0--------|-----------0--------|-----------0--------|
|--------0-----0-----|--------0-----0-----|--------0-----0-----|
|-----0-----------0--|-----0-----------0--|-----0-----------0--|
|--------------------|--------------------|--------------------|
|--------------------|--------------------|--------------------|
|--0-----------------|--0-----------------|--0-----------------|
 
|-----------0-----7--|--7--------7p0-------|--------7--8--7h87\5-|--7--5/2------|
|--------0-----0-----|-----0-----0---0-----|--0-----0--0---------|--0--------5--|
|-----0--------------|--------0---------0--|-----0---------------|--------------|
|--------------------|---------------------|---------------------|--------------| 
|--------------------|---------------------|---------------------|--------------|
|--0-----------------|--0------------------|--0------------------|--------------|
 
|-----------2p0-------|-----------0--0--0--|--0----------3p0-----0--|
|--5-----5------5-----|--------5-----5--5--|--5------5-------5---5--|
|-----5------------5--|-----5--------5--5--|--5----5---5-------5-5--|
|---------------------|--------------------|------------------------|
|--0------------------|--0-----------0--2--|--3--3---------------3--|
|---------------------|--------------------|------------------------|

                                  N.H.......
|--0----------0h5p0---------|-------------12--------|-----------0--------|
|--7------7---------7p0-0h5-|-----12--12------0-----|--------0-----0-----|
|--7----7---7---------------|-----12-------------0--|-----0-----------0--|
|---------------------------|-----------------------|--------------------|
|--5--5---------------------|-----------------------|--------------------|
|---------------------------|--0--------------------|--0-----------------|
 





|-----------0--------|-----------0--------|------------7------|
|--------0-----0-----|--------0-----0-----|------------8------|
|-----0-----------0--|-----0-----------0--|----------9--------|
|--------------------|--------------------|--------9----------|
|--------------------|--------------------|------7------------|
|--0-----------------|--0-----------------|--0----------------|
 
|--------------------|------------7------|--------------------|
|--------7--------5--|------------8------|--------7--------5--|
|--------7--------5--|----------9--------|--------7--------5--|
|-----7--------5-----|--------9----------|-----7--------5-----|
|--5--------3--------|------7------------|--5--------3--------|
|--------------------|--0----------------|--------------------|

|------------7------|----5--------3------|----3--------2------|
|----------8--------|------7--------5----|------3--------4----|
|--------9----------|--------7--------5--|--------4--------2--|
|-------------------|--------------------|--------------------|
|-------------------|--------------------|--------------------|
|-------------------|--------------------|--------------------|

|------------0--------|-----------0--------|
|---------0-----0-----|--------0-----0-----|
|------0-----------0--|-----0-----------0--|
|---------------------|--------------------|
|---------------------|--------------------|
|--0------------------|--0-----------------|


Verse 1 (x3)
|-----------3----0-----|--2----3-----0----------|-----------3----0-----|
|--------0---------0---|---------3------3-------|--------0---------0---|
|-----0--------0-----0-|-----------0------0-----|-----0--------0-----0-|
|----------------------|--0--0------------------|----------------------|
|----------------------|-------------3----------|----------------------|
|--0-------------------|--------------------3-2-|--0-------------------|


|--2---------------------|-----------3----0-----|--2----3-----3--------|
|-------3-----3----3-----|--------0---------0---|---------3------3-----|
|---------2p0----0-------|-----0--------0-----0-|-----------0-------0--|
|--0--0------------------|----------------------|--0--0----------------|
|-------------3----------|----------------------|-------------3--------|
|--------------------3-2-|--0-------------------|----------------------|

|--------3--2----2----|--0--------0--------|-----------0---------|
|--------3--0------0--|--------0-----0-----|--------0-----0------|
|-----0-----2---------|-----0-----------0--|-----0---------------|
|---------------------|--------------------|---------------------|
|-----------2--2------|--------------------|---------------------|
|--3------------------|--0-----------------|--0--------------3-2-|

Chorus
||--0---------|--2---2-2-2-3-2--0--2-|--0---------|--2---2-2-2-3-2--0--2--||
||*-1----2----|--3---3-3-3-3-3--3--3-|--1----2----|--3---3-3-3-3-3--3--3-*||
||--0----2----|--2---2-2-2-2-2--2--2-|--0----2----|--2---2-2-2-2-2--2--2--||
||*-2----2----|--0---0-0-0-0-0--0--0-|--2----2----|--0---0-0-0-0-0--0--0-*||
||--3----0----|----------------------|--3----0----|-----------------------||
||------------|----------------------|------------|-----------------------||

|--0-----------------|--2--2-2-2--|--0------------|--------------|
|--1--------2--------|--3--3-3-3--|--0------------|--------------|
|--0--------2--------|--2--2-2-2--|--0------------|--------------|
|--2--------2--------|--0--0-0-0--|--2------------|--------------|
|--3--------0--------|------------|--2------------|--------------|
|--------------------|------------|--0------------|--------------|

Verse
|-----------3----0-----|--2----3-----0----------|-----------3----0-----|
|--------0---------0---|---------3------3-------|--------0---------0---|
|-----0--------0-----0-|-----------0------0-----|-----0--------0-----0-|
|----------------------|--0--0------------------|----------------------|
|----------------------|-------------3----------|----------------------|
|--0-------------------|--------------------3-2-|--0-------------------|


|--2---------------------|-----------3----0-----|--2----3-----3--------|
|-------3-----3----3-----|--------0---------0---|---------3------3-----|
|---------2p0----0-------|-----0--------0-----0-|-----------0-------0--|
|--0--0------------------|----------------------|--0--0----------------|
|-------------3----------|----------------------|-------------3--------|
|--------------------3-2-|--0-------------------|----------------------|

|--------3--2----2----|--0--------0--------|-----------0---------|
|--------3--0------0--|--------0-----0-----|--------0-----0------|
|-----0-----2---------|-----0-----------0--|-----0---------------|
|---------------------|--------------------|---------------------|
|-----------2--2------|--------------------|---------------------|
|--3------------------|--0-----------------|--0--------------3-2-|

Chorus
||--0---------|--2---2-2-2-3-2--0--2-|--0---------|--2---2-2-2-3-2--0--2--||
||*-1----2----|--3---3-3-3-3-3--3--3-|--1----2----|--3---3-3-3-3-3--3--3-*||
||--0----2----|--2---2-2-2-2-2--2--2-|--0----2----|--2---2-2-2-2-2--2--2--||
||*-2----2----|--0---0-0-0-0-0--0--0-|--2----2----|--0---0-0-0-0-0--0--0-*||
||--3----0----|----------------------|--3----0----|-----------------------||
||------------|----------------------|------------|-----------------------||

|--0-----------------|--2--2-2-2--|--0------------|--------------|
|--1--------2--------|--3--3-3-3--|--0------------|--------------|
|--0--------2--------|--2--2-2-2--|--0------------|--------------|
|--2--------2--------|--0--0-0-0--|--2------------|--------------|
|--3--------0--------|------------|--2------------|--------------|
|--------------------|------------|--0------------|--------------|

Interlude
|--12--------14--------|--15--------17--------|--8--------8--------|
|------12--------12----|------12--------12----|-----5--------5-----|
|----------------------|----------------------|--------5--------5--|
|----------------------|----------------------|--------------------|
|----------------------|----------------------|--------------------|
|----------------------|----------------------|--------------------|


|----------8--------|--0----------0-----|--0----------0-----|
|-------5-----5-----|-----1----------1--|-----3----------3--|
|----5-----------5\-|--------0----------|--------2----------|
|-------------------|-------------------|-------------------|
|-------------------|-------------------|-------------------|
|-------------------|-------------------|-------------------|

|--0-7-------7-0-------|-----------0------|--12--------14--------|
|------0---------0-----|--------0---------|------12--------12----|
|---------0---------0--|-----0------------|----------------------|
|----------------------|------------------|----------------------|
|----------------------|------------------|----------------------|
|----------------------|--0---------------|----------------------|

|--15--------17--------|--8--------8--------|----------8--------|
|------12--------12----|-----5--------5-----|-------5-----5-----|
|----------------------|--------5--------5--|----5-----------5\-|
|----------------------|--------------------|-------------------|
|----------------------|--------------------|-------------------|
|----------------------|--------------------|-------------------|

|--0----------0-----|--0----------0------------|--0--7-------7--0------|
|-----1----------1--|-----3----------3---------|-------0----------0----|
|--------0----------|--------2-----------------|----------0----------0-|
|-------------------|--------------------------|-----------------------|
|-------------------|--------------------------|-----------------------|
|-------------------|--------------------------|-----------------------|

|-------------------0------------|---...----------|
|--------------0---------0-------|---...----------|
|---------0----------------------|---...----------|
|--------------------------------|---...----------|
|--------------------------------|---...----------|
|--0-----------------------------|---...----------|




Verse (x2)
|-----------3----0-----|--2----3-----0----------|-----------3----0-----|
|--------0---------0---|---------3------3-------|--------0---------0---|
|-----0--------0-----0-|-----------0------0-----|-----0--------0-----0-|
|----------------------|--0--0------------------|----------------------|
|----------------------|-------------3----------|----------------------|
|--0-------------------|--------------------3-2-|--0-------------------|

|--2---------------------|-----------3----0-----|--2----3-----3--------|
|-------3-----3----3-----|--------0---------0---|---------3------3-----|
|---------2p0----0-------|-----0--------0-----0-|-----------0-------0--|
|--0--0------------------|----------------------|--0--0----------------|
|-------------3----------|----------------------|-------------3--------|
|--------------------3-2-|--0-------------------|----------------------|

|--------3--2----2----|--0--------0--------|-----------0---------|
|--------3--0------0--|--------0-----0-----|--------0-----0------|
|-----0-----2---------|-----0-----------0--|-----0---------------|
|---------------------|--------------------|---------------------|
|-----------2--2------|--------------------|---------------------|
|--3------------------|--0-----------------|--0--------------3-2-|

Chorus
||--0---------|--2---2-2-2-3-2--0--2-|--0---------|--2---2-2-2-3-2--0--2--||
||*-1----2----|--3---3-3-3-3-3--3--3-|--1----2----|--3---3-3-3-3-3--3--3-*||
||--0----2----|--2---2-2-2-2-2--2--2-|--0----2----|--2---2-2-2-2-2--2--2--||
||*-2----2----|--0---0-0-0-0-0--0--0-|--2----2----|--0---0-0-0-0-0--0--0-*||     x4
||--3----0----|----------------------|--3----0----|-----------------------||
||------------|----------------------|------------|-----------------------||

|--0-----------------|--2--2-2-2--|--0------------|--------------|
|--1--------2--------|--3--3-3-3--|--0------------|--------------|
|--0--------2--------|--2--2-2-2--|--0------------|--------------|
|--2--------2--------|--0--0-0-0--|--2------------|--------------|
|--3--------0--------|------------|--2------------|--------------|
|--------------------|------------|--0------------|--------------|


Before Solo
|---------------------------|
|---------------------------|
|---------------------------|
|---------------------------|
|--7-7---------2-2-2-2-2-2--|
|------0-0-0-0-0-0-0-0-0-0--|

Solo
|------------------------|----------------------------------|
|--15--------------------|----------------------------------|
|--14b---14br-12~--14-12-|--11h12p11----11---------12-14-12-|
|------------------------|-----------14----12-14~-----------|
|------------------------|----------------------------------|
|------------------------|----------------------------------|

|--------12-------12-------------------|---------------------------|
|-----12-------12----15p12----12-------|----------14--14-13--------|
|--14b------14b------------15----15-14-|--12br----14--14-13-12\----|
|--------------------------------------|-------14------------------|
|--------------------------------------|---------------------------|
|--------------------------------------|---------------------------|

|--14/15--14~-----15--14~-15/17--|--15-14h15p14\12----15-14---------------|
|-------------12-----------------|-----------------12-------12------------|
|--------------------------------|-------------------------------12-14-12-|
|--------------------------------|----------------------------------------|
|--------------------------------|----------------------------------------|
|--------------------------------|----------------------------------------|

|----------------------12------------|----------------|--------------|
|--15---------------12-----15-15b-12-|--15b-----------|--------------|
|--14br-12----12-14b-----------------|----------------|--------------|
|----------14------------------------|----------------|--------------|
|------------------------------------|----------------|--------------|
|------------------------------------|----------------|--------------|


|-----------0---------|-----------0--------|
|--------0-----0------|--------0-----0-----|
|-----0-----------0---|-----0-----------0--|
|---------------------|--------------------|
|---------------------|--------------------|
|--0------------------|--0-----------------|

Last Verse
|-----------3----0-----|--2----3-----0----------|-----------3----0-----|
|--------0---------0---|---------3------3-------|--------0---------0---|
|-----0--------0-----0-|-----------0------0-----|-----0--------0-----0-|
|----------------------|--0--0------------------|----------------------|
|----------------------|-------------3----------|----------------------|
|--0-------------------|--------------------3-2-|--0-------------------|

|--2---------------------|-----------3----0-----|--2----3-----3--------|
|-------3-----3----3-----|--------0---------0---|---------3------3-----|
|---------2p0----0-------|-----0--------0-----0-|-----------0-------0--|
|--0--0------------------|----------------------|--0--0----------------|
|-------------3----------|----------------------|-------------3--------|
|--------------------3-2-|--0-------------------|----------------------|

|--------3--2----2----|--0--------0--------|-----------0---------|
|--------3--0------0--|--------0-----0-----|--------0-----0------|
|-----0-----2---------|-----0-----------0--|-----0---------------|
|---------------------|--------------------|---------------------|
|-----------2--2------|--------------------|---------------------|
|--3------------------|--0-----------------|--0--------------3-2-|

Ending (x3 & fade)
|--0--------0--------|-----------0-----7--|--7--------7p0-------|
|--------0-----0-----|--------0-----0-----|-----0---------0-----|
|-----0-----------0--|-----0--------------|--------0---------0--|
|--------------------|--------------------|---------------------|
|--------------------|--------------------|---------------------|
|--0-----------------|--0-----------------|--0------------------|


|--------7--8--7h-8p7\5-|--7--5\3-0--|
|--------0--0-----------|--0---------|
|-----0-----------------|------------|
|-----------------------|------------|
|-----------------------|------------|
|--0--------------------|------------|

Props to the niggaz at GuiareTab.com. 
Peace out y'all!!

MR. BIGG
Related for Nothing Else Matters tab