Song name
# A B C D E F G H I J K L M N O P Q R S T U V W X Y Z

Metallica - The Unforgiven tab

THE UNFORGIVEN by metallica
Well i have to say thanks to everybody 
who had help me to arrange this tab. Thanks a lot man!!!!

arranged by Nobita 08 on monday, april 21th 2003 , 21:33:29
moehi apartement 26
indonesia

INTRO
 Gtr I (accoustic)

|--------------------------------|
|-0-----0-----0-----0-----1------|
|---2-----2-----2-----2-----2----|
|-----2-----2-----2-----2-----2--|
|-0------------------------------|
|--------------------------------|
 repeating along the intro while guitar II played
 

 Gtr II (electric, clean tone)                    
|---------------------------------|---------------------------------|
|---------------------------------|---------------------------------|
|---------------------------------|---------2---4-5^4-------5-4-2---|
|---------------------------------|---------------------------------|
|---------------------------------|---------------------------------|
|---------------------------------|---------------------------------|

|---------------------------------|---------------------------------|
|---------------------------------|---------------------------------|
|(2)------2---4-4^5-------5-2-----|(2)------2---4-4^5-------5-4-2---|
|---------------------------------|---------------------------------|
|---------------------------------|---------------------------------|
|---------------------------------|---------------------------------|

|---------------------------------|---------------------------------|
|---------------------------------|---------------------------------|
|(2)------2---4-4^5-------5-2-----|(2)------2---4-4^5----4^5------5-|
|---------------------------------|---------------------------------|
|---------------------------------|---------------------------------|
|---------------------------------|---------------------------------|

|---------------------------------|---------------------------------|
|---------------------------------|-----------------------3^5-----5-|
|-5-4---------4\----------2-2^4---|-2-------2---4-4^5---------------|
|-----5-----------2---------------|---------------------------------|
|---------------------------------|---------------------------------|
|---------------------------------|---------------------------------|

|---------------------------------|---------------------------------|
|-5-3-----------------------------|---------------------------------|
|-----4-------4\--1------\4-1-2^4-|-2-------------------------------|
|---------------------------------|---------------------------------|
|---------------------------------|---------------------------------|
|---------------------------------|---------------------------------|

|---------------------------------||
|-0-------0-----0-----0-----1-----||
|-----2-----2-----2-----2---------||
|-------2-----2-----2-----2-------||
|-0-------------------------------||
|---------------------------------||

VERSE I
guitar I (use power chords and distortion)

A5    A5    C5   E5   E5   xx  D5   D5  D5  D5   A5  A5  xx   A5    A5   A5
New blood joins this Earth,   and quick-ly he's sub-dued.   Through con-stant 

 C5   E5  E5   xx  D5   D5  D5    D5    A5    A5   xx A5   A5   A5   C5   E5 
pain dis-grace,   the young boy learns thier rules.  With time,the child draws

E5 xx  D5   D5   D5   D5  A5    A5  xx A5   A5   A5  C5 E5    E5    XX D5  D5
in.   This whip-ping boy done wrong.   De-prived of all his thoughts, the
young 

D5   D5    A5 		(fill 1)
man strug-gles on and on..........

           C5          G5    (FILL 1)
...Ooh, a vow unto his own. That Never from this day.

     C5                G5    E5
His will they'll take away.......

Fill 1:
    P.M--|  P.M--|  P.M--|  P.M--|
|---------------------------------|---------------------------------|
|---------------------------------|---------------------------------|
|-5-------4-------2-------0-------|---------------------------------|
|---0-------0-------0-------0-----|-5-------------------------------|
|-----0-0-----0-0-----0-0-----0-0-|-3---------5-3-0-3---------------|
|---------------------------------|-----------------5---------------|


CHORUS
Gtr II 
mf                       
|---------------------------------|---------------------------------|
|---------------------------------|---------------------------------|
|--------2---4---5-------5------5-|-5-4---------4\----------2-2^4---|
|---------------------------------|-----5-----------2---------------|
|---------------------------------|---------------------------------|
|---------------------------------|---------------------------------|
What I've felt,__  what I've   known never shined through in what I've

  
|---------------------------------|---------------------------------|
|-------------------------5-----5-|-5-3-----------------------------|
|-2-------2---4---5---------------|-----4-------4\--1------\4-1-2^4-|
|---------------------------------|---------------------------------|
| --------------------------------|---------------------------------|
|---------------------------------|---------------------------------|
shown. Never be.___   Never see.______  Won't see what_ might have___

 
|---------------------------------|---------------------------------|
|---------------------------------|---------------------------------|
|-2-------2---4---5-------5-----5-|-5-4---------4\----------2-2^4---|
|---------------------------------|-----5-----------2---------------|
|---------------------------------|---------------------------------|
|---------------------------------|---------------------------------|
been.What I've felt,what I've known,never shined through in what I've shown

 
|---------------------------------|---------------------------------|
|-------------------------5-----5-|-5-3-----------------------------|
|-2-------2---4---5---------------|-----4-------4\--1------\4-1-2^4-|
|---------------------------------|---------------------------------|
|---------------------------------|---------------------------------|
|---------------------------------|---------------------------------|
          Never free.     Never me.           So I dub thee unforgiv-


 
|---------------------------------||
|---------------------------------||
|-2-------------------------------||
|---------------------------------||
|---------------------------------||
|---------------------------------||
en.                                                           



VERSE II
Use the same chords in the verse 1

They dedicate their lives to running all of his. He tries to please them all,
this bitter man he is. Throughout his life the same, he's battled constantly.
This fight he cannot win. A tired man they see no longer cares, The old man
then prepares to die regretfully. That old man here is me.


Play after 2nd verse                Interlude
 Gtr. I                             Gtr. II
|---------------------------------||---------------------------------|
|-0-------0-----0-----0-----1-----||---------------------------------|
|-----2-----2-----2-----2-----2---||---4-5-7-5-4^5^4---4-------------|
|-------2-----2-----2-----2-----2-||-7---------------7---5-5^7-------|
|-0-------------------------------||---------------------------------|
|---------------------------------||---------------------------------|


SOLO
  Use kind of distortion
|-----------------------------------------------------------------|
|--7^--7^---------------------------------------------------------|
|--7^--7^--5------------------------------------5--7--5-7-7/9-7-9-|
|------------7--7^--5------------------------/7-------------------|
|---------------------7-5/3-5-3--------3^-------------------------|
|-------------------------------5-3-5-----------------------------|
                                        (extreme repeated bending) 
|----------------10-------8------10------------------------|
|-7--7-8-7h8--10----10--10--10-10--10----20^^^^^^^^^-17----|
|---9------------------------------------------------------|
|----------------------------------------------------------|
|----------------------------------------------------------|
|----------------------------------------------------------|

|-20^--20^^^--17-17-20p17----17--------------10p9-7-9---9---------|
|-------------------------20----20^------------------10---8-7---7-|
|-----------------------------------------\9------------------9---|
|-------------------------------------17\-------------------------|
|-----------------------------------------------------------------|
|-----------------------------------------------------------------|

|------------------------------12--------12-------12-------12---------|
|---------------------------13----13--------13-------13-------13------|
|-9-7\5-7-5\4-5-4-2----\14-----------14--------14-------14-------14---|
|---------------------------------------------------------------------|
|---------------------------------------------------------------------|
|---------------------------------------------------------------------|

|-12--------12-------12--------------------------------------17-19-20-|
|----13--------13-------13----------------------20^---20^-------------|
|-------14--------14-------14----19^----19^--17-----------------------|
|---------------------------------------------------------------------|
|---------------------------------------------------------------------|
|---------------------------------------------------------------------|

|-19-17-19--17h19p17-----17-------------------------------------------|
|-------------------20^----20-17----20-17-----------------------------|
|-------------------------------19^------19-19^p17-19^p17--19^-19^-17-|
|---------------------------------------------------------------------|
|---------------------------------------------------------------------|
|---------------------------------------------------------------------|

|-------------------------------------------------|
|-20~~~---18h20p18---17~~~~~--18p17~~~~~~~~~~-----|
|-------------------------------------------------|
|-------------------------------------------------|
|-------------------------------------------------|
|-------------------------------------------------|

Tap to rate this tab
# A B C D E F G H I J K L M N O P Q R S T U V W X Y Z