Guitaretab - guitar tabs
Song name
# A B C D E F G H I J K L M N O P Q R S T U V W X Y Z

Metallica - Dirty Window tab

Ste warhurst ste_warhurst@yahoo.com

Band: Metallica
Song: Dirty Window
Album: St. Anger

TUNING: C#-G#-C#-F#-A#-D#


d#------------------------------------|
A#------------------------------------|
F#------------------------------------|
C#----x--x--x--x--x----x----x--x--x---|   Play 6 times
G#----0--0--0--0--0----0----0-0--0---|
C#----0--0--0--0--0----0----0--0--0---|


d#-----------------------------------------|
A#-----------------------------------------|
F#-----------------------------------------|
C#-----------------------------------------|   Play 5 times
G#------------------------------5----------|
C#---0--3--5--0--3--5--0--3--5-----6--5----|


d#---------------------------|
A#---------------------------|
F#---------------------------|
C#---3----0-3-0--3h5--5-5-5--|   Play once
G#---3----0-3-0-3h5--5-5-5--|
C#---3----0-3-0--3h5--5-5-5--|

 
d#-----------------------------------------|
A#-----------------------------------------|
F#-----------------------------------------|
C#-----------------------------------------|   Play 2 times
G#---0--3--5--0--3--5--0--3--5--5--6--5----|
C#---0--3--5--0--3--5--0--3--5-----6--5----|

d#-------------------------------------------|
A#-------------------------------------------|
F#-------------------------------------------|
C#---0--3--5--0--x-x-x-x--0--3--5------------|   Play 3 times
G#---0--3--5--0--x-x-x-x--0--3--5------------|   
C#---0--3--5--0--x-x-x-x--0--3--5-6h9p6-----|	
   


d#----------------------------------|
A#----------------------------------|
F#----------------------------------|
C#---3--6--8--3----3--6--8----------|   play once
G#---3--6--8--3----3--6--8----------|
C#---3--6--8--3---3--6--89h10p9---|
    
d#-------------------------------------|
A#-------------------------------------|
F#-------------------------------------|
C#---3--6--8--3----3--6--8--3--6--8----|   play once
G#---3--6--8--3----3--6--8--3--6--8----|
C#---3--6--8--3---3--6--8-3-6--8----|



d#-----------------------------------------------------------------|
A#-----------------------------------------------------------------|
F#-----------------------------------------------------------------|
C#---7-----3--7--5-----8--7----------------------------------------| Play 2 times
G#---------0--0--3-------------------------------------------5-----|
C#-----------------------------0--3--5--0--3--5--0--3--5-----6-5--|

				
d#---------------|
A#---------------|
F#---------------|
C#---0--3-5--0--|   play 2 times
G#---0--3--5--0--|
C#---0--3--5--0-|


d#------------------------|
A#------------------------|
F#-------------6----------|
C#---0--3--5---6--6--5----|   play once
G#---0--3--5---6--6--5----|
C#---0--3--5-----6--5----|

[ Tab from: http://www.guitaretab.com/m/metallica/25415.html ]
Related for Dirty Window tab