Song name
# A B C D E F G H I J K L M N O P Q R S T U V W X Y Z

Metallica - Little Boy Youre Going To Hell tab

My first tab. It is really easy and I did it in about 30 seconds :)
Don't forget to tune your guitar to D!
BBart


D|-----------------------------------------| x4
A|-----------------------------------------|
F|-----------------------------------------|
C|--------9-------9-------9----------------|
G|--------7-------7-------7---2-0---0------|
D|--0-0-0---0-0-0---0-0-0---------3---3-2--|


D|-------------------------------------------------|
A|-------------------------------------------------|
F|-------------------------------------------------|
C|----------------9-------9-------9----------------|
G|--5---7---------7-------7-------7---2-0---0------|
D|--3---5---0-0-0---0-0-0---0-0-0---------3---3-2--|
Tap to rate this tab
# A B C D E F G H I J K L M N O P Q R S T U V W X Y Z